Robbie-Old Before I Die
  
      	EADGBe
A		x02220
Em/A		x02000
F#m		244222
F		133211
G		320033
Asus2		x0220x
Asus2addb13	x0320x
Asus2add13	x0420x
Gadd9		3x0203
D		xx0232
Bm		x24432
Aaug		x0322x
B7		x21202
G7		320001
A6		x04220
C		x32010
Am		x02210
Bb		x13331
Dm		xx0231
Fm		133111
Caug		x3211x


Intro

A Em/A x4

Verse 1
(Continue intro chords) 
She's taking me places I should never have been
                                F#m        F    G
She's showing me faces I should never have seen

Bridge
Asus2          Asus2addb13                Asus2add13
Well these are strange days, we're living in today
         Gadd9
C'est la vie I say

Chorus
           A  F#m        D     E
I hope I'm old, before I die
            A         F#m
I hope I'll live to relive
              D     G
The days gone by
           A     F#m    Bm7    D
I hope I'm old before I die
     A
Well tonight I'm gonna
         Asus2addb13
Live for today
                      Bm7
So come along for the ride
           Dm
I hope I'm old before I die

Play intro

Verse 2
(continue intro chords)
She's not feeling stable
She's unable to breathe
Her heart's beating faster
        F#m        F    G
So I'll ask her to leave

Bridge
Asus2          Asus2addb13                Asus2add13
These are strange days, we're living in today
     Gadd9
Am I straight or gay?

Chorus
           A  F#m        D    E
I hope I'm old, before I die
            A               F#m 
I hope I'll live to see the day
              D       G
The Pope gets high
           A  F#m        Bm7      Dm
I hope I'm old, before I die
     A
Well tonight I'm gonna
         Aaug
Live for today
                      Bm
So come along for the ride
           Dm
I hope I'm old before I die

Solo
   F#m                     D                       A
E||----------------------|-----------------------|-----------------------|
B||----------------------|-----------------------|-----------------------|
G||-----------4r---2-----|--------------2--------|--------------------2--|
D||--4----------------4--|--------2--4-----4--2--|--------------2--4-----|
A||----------------------|-----------------------|--------2--4-----------|
E||----------------------|-----------------------|-----------------------|

 B7                     F#m                    G7                                                                 
----------------------|----------------------|---------------------|
----------------------|----------------------|---------------------|
----------------------|-----------4r---2-----|-------------2----4--|
----4--------------2--|--4----------------3--|--------5------------|
-------------2--4-----|----------------------|---------------------|
----------------------|----------------------|---------------------|
                        
-------------------0--|
---------3----6----2--|
----6--------------2--|
-------------------2--|
-------------------0--|
----------------------|

Bridge
Asus2          Asus2addb13                Asus2add13
Well these are strange days we're living in today
         Gadd9
C'est la vie, I say, I say, I say

Chorus
           C  Am         F    G
I hope I'm old, before I die
            C         Am   
I hope I'll live to relive
              F    Bb
The days gone by
           C  Am        Dm   Fm
I hope I'm old before I die
       C
Well tonight I'm gonna
         Caug
Live for today
                      Dm
So come along for the ride
           Fm           C    Am
I hope I'm old before I die
           Dm
I hope I'm old
        F            C  Am
Before, old before I die
Dm          F            C         Am       Dm
Old before, old before I die, die, die, die
F                        C         Am       Dm   fade
Old before, old before I die, die, die, die

http://www.sparkystabs.co.uk