Blinded By The Sun by The "Seahorses"

(Guitar 1) John Squire's Lead & fills played with mild distortion
             and flanger f/x
      Intro
E|-----------------------------------------------------------|
B|-----------------14----------------------------------------|
G|--------------14----14---------13b(14)r13---13---\11-------|
D|------16---16----------16----------------------------11----|
A|--(16)--------------------------------------------------12-|
E|-----------------------------------------------------------|

E|--------------------|----------------------------------17-------------|
B|--------------------|---------------14----17(---hold---)--------------|
G|--------------------|------------14----14-16sb(18)~~~~~~~(18)sr16~~~~-|
D|------------14-h-16-|-14h16---16--------------------------------------|
A|---12-14/16---------|-------------------------------------------------|
E|--------------------|-------------------------------------------------|
                                                 <--- Repeat to here
E|---------------------------------------------||-----------------------|
B|-10h12p10\9-10p9----9------------------------||-----------------------|
G|-----------------11---11p9----9--------------||-6--/9--9/11--11/14\11-|
D|---------------------------11---11p9---------||-x--/x--x------x-------|
A|-------------------------------------12p11-9-||-4--/7--7/9----9/12\9--|
E|---------------------------------------------||-----------------------|
       1st Time                      2nd Time
E|----------------------|  |-----------------------------|
B|----------------------|  |-----------------------------|
G|--11/14--14-/-16---11-|  |-11/16--16-\-14---3--3-6--/9-|
D|---x------x---------x-|  |--x------x--------x--x-x---x-|
A|---9/12--12-/-14----9-|  |--9/14--14-\-12---1--1-4--/7-|
E|----------------------|  |-----------------------------|
            Intro Ends                     Verse (Fig 1)    
E|-9--------------------------||     |-------------------------||
B|---12-11-9-11-9-------------||     |-------------------------||
G|----------------11-10-11~~~-||     |--(11)~~~~~\3---3-3/6--4-||
D|----------------------------||     |-------------------------||
A|----------------------------||     |-------------------------||
E|----------------------------||     |-------------------------||
            Verse Fill(1)                                   
E|--------------------------------------------||
B|---------7-7-9-9b(10)-9-7---10sb(11)~~~~~~~-||
G|--9b(10)------------------9--9sb(11)~~~~~~~-||
D|--------------------------------------------||
A|--------------------------------------------||
E|--------------------------------------------||
            Verse Fill(2)
E|-----7\x---------------------7----7------|
B|-----7\x--10b(12)-10--------7--10--10p9--|
G|-7h8------------------9b(11)-------------|
D|-9(9)------------------------------------|
A|-----------------------------------------|
E|-----------------------------------------|
  Verse Fill(2) cont.                               Chorus Lead-in
E|-----------------------------------|| |-------------------------0--||
B|-9h10p9\7-9p7---7---10sb(11)~~~~~~-|| |-2---2-------2-----------0--||
G|--------------9---9--9sb(11)~~~~~~-|| |-2---2-------2-----------1--||
D| ----------------------------------|| |-2---2-------2-------2--(2)-||
A|-----------------------------------|| |-0---0---/4-----4\---2--(2)-||
E|-----------------------------------|| |---------------------0--(0)-||

      Chorus  (Fig 2)
E|------------------------|---------------------------|
B|--------3---3-2h3-------|---------7-----------------|
G|--------4----------4----|---------7--------7--------|
D|-----4----------------4-|------7-----------7--------|
A|--2---------------------|-2/5----------7/9-----9\---|
E|-(2)--------------------|---------------------------|

E|-------5----------------|------0----------------|| (repeat last
B|-------5----------------|------0----------------||  4 bars)
G|-------6----------------|------1----------------||
D|-------7---------7------|--2---(2)--------------||
A|----7------------7------|--2---(2)---2h4-2-0----|| 
E|-5-----------7/9-----9\-|--0---(0)-----------4--||
(Chorus ends)        
E|----------------------|------3----------|------2--2h3-2-------||
B|-------3--3-2h3-------|------3----3-----|------3--3-----2h3-2-||
G|-------4---------4----|------4------4---|---2----------2------||
D|----4--------------4--|------5--------5-|-0-------------------||
A|--2-------------------|---5-------------|---------------------||
E|-(2)------------------|-3---------------|---------------------||
   Verse 2 (fig 3)   
  <-------Palm Mute---------->
E|-------------------------------------------------------------|
B|-------------------------------------------------------------|
G|-3---3---3---3---3---3---3----4b(6)r4p2---2sb(3)-------------|
D|---4---4---4---4---2---2---2------------4--------4--2-2--2-4-|
A|-------------------------------------------------------------|
E|-------------------------------------------------------------|

E|--------7----7-----------------------------------------||
B|-------7--10--10p9-9h10p9\7-9p7---7---10sb(11)~~~~~~~~-||
G|-9b(11)-------------------------9---9--9sb(11)~~~~~~~~-||
D|-------------------------------------------------------||
A|-------------------------------------------------------||
E|-------------------------------------------------------||
      Bridge (fig 4)
E|10------10-------10----------10-9-7------------------------------------||
B|10b(12)r10b(12)-(12)r10-------------10-8-9~~~--7h8p7----7--7h8p7-/12-10||
G|------------------------6~~~~-----------------9------7h9--9------------||
D|-----------------------------------------------------------------------||
A|-----------------------------------------------------------------------||
E|-----------------------------------------------------------------------||

 (Guitar 2) Chris Helme's Rythm played on Steel-string Acoustic.
 
F#	244322	F#7	242322	B	x24442	Bm7	x24232
C#7	x4342x	A	x02220	E	0222100	D	xx0232
Bm	x24432	G	320003	Gmaj7 3x443x	Gm	355333
Dmaj7	xx0222


   Intro
 E||--2--2--2--2--2--2--2--2--|--2--2--2--2--2--2--2--2--|
 B||--------------------------|--------------------------|
 G||--------------------------|--------------------------|
 D||--4--4--4--4--4--4--4--4--|--2--2--2--2--2--2--2--2--|
 A||--------------------------|--------------------------|
 E||--------------------------|--------------------------|
                                                      
 --2--2--2--2--2--2--2--2--|--2--2--2--2--2--2--2--2--|
 --------------------------|--------------------------|
 --------------------------|--------------------------|    repeat once
 --1--1--1--1--1--1--1--1--|--0--0--0--0--0--0--0--0--|
 --------------------------|--------------------------|
 --------------------------|--------------------------|

 ||: F#   F#7  B  Bm7 :||  F# C#7       

   (Verse 1) [Gtr 1: Fig 1 +fill 1]
  F#                  F#7                  B            Bm7   
  How would u feel if i was to Kneel right down at your feet? right now
  F#               F#7             B                           Bm7    
  is the way it's going to be from now until forever lets have less of
                         F#    C#7
  getting clever with me. 
 
   (Verse 2) [Gtr 1: Fig 1 +fills 1&2]
  F#                     F#7                    B         Bm7             
  Who would u blame for blowing the flame right out is it me? there is no
  F#                  F#7                  B                             
  doubt i can do what i want to to do from now until forever lets have 
  Bm7                             A     E
  less of getting clever with me      

   (Chorus) [Gtr 1: Fig 2]  
  Bm                D                A                          
  Your wasting Your time and my time aswell la la la living a 
  E                          Bm
  lie i guess that time will tell
                D                              A               E  
  your making excuses for the things you never done walking in circles
                 Bm      G                  D      F#  
  blinded by the sun,        blinded by the sun 

   (Verse 3- Same as verse2) [Gtr 1 Fig 3] 

   (Chorus) [Gtr 1: Fig 2]

   (Bridge) [Gtr 1: Fig 4+ riffs based on same scale]
  D       F#7             Gmaj7   D               F#7            Gmaj7
  I don't mean to sound unkind to you you'll just have to go and find
                    D            F#7              Gmaj7                 
  something else to do And don't ask me what went wrong, the ||: list goes
         D       F#7     Gmaj7       Gm               Dmaj7
  on and on, and on, and on, the :|| list goes on and on.