I Want You To Know
The Seahorses
                        BU
E----------------------------------------------------
B------------------------------------------3---------
G------------------------------------------3---------
D------5-------3----------------5-------3------------
A---------3h5-----5-3--------------3h5---------------
E---3------------------6(7)--3-----------------------

                        BU
E----------------------------------------------------
B----------------------------------------------------
G----------------------------------------------------
D------5-------3----------------5------3------3------
A---------3h5-----5-3--------------3h5----3h5----3h5-
E---3------------------6(7)--3-----------------------

                        BU
E----------------------------------------------------
B----------------------------------------------------
G----------------------------------------------------
D------5-------3----------------5--------------------
A---------3h5-----5-3--------------------------------
E---3------------------6(7)--3-----1--1--11----------

               PO    PO                  BU
E----------------------------------------------------
B---------3h5 6 (5) 6 (5)-3--------------------------
G----------------------------------------------------
D------5-------------------------5------3(4)---------
A----------------------------------------------------
E---3-------------------------3----------------------

Intro:
E---------------------------------------------------------
B---------------------------------------------------------
G---------------------------------------------------------
D-------5---------3-----------------5---------3-----------
A-----------3h5-------5p3---------------3h5-------5p3-----
E---3-----------------------5---3-----------------------5-