Julia-Silver Sun

  B                         E     Em 
G-----------------4--------------------------
D-6\4-------6\4-----4--------4-2-------------
A-----6-4-2-----6-----2-4/6-----2-5p4-2--4/2-
E--------------------------------------------

B 
Two foot tall and mad as hell
I make you a good one no?
            E
Pick up the knife and spoon
  Em              B
I have an amazing prowess in June

Structured up and evil too
I got my evil eye on you
            E
Down at the harbour pool
           Em           B E B F#
they speak english too

B                    G
And Julia what can I do?
    E    F#    E             F#
Coz everyday I look a little more like
B                 G
Julia, what can I do?
    E    F#    E             F#
Coz everyday I look a little more like
E    F#    E             F#
Everyday I look a little more like
E    F#    E             F#        B
Everyday I look a little more like you!

  B                         E     Em 
G-----------------4--------------------------
D-6\4-------6\4-----4--------4-2-------------
A-----6-4-2-----6-----2-4/6-----2-5p4-2--4/2-
E--------------------------------------------

B 
Lilo, Milo's got the change
He's the Geezer who's slighty deranged
         E                              Em
Everyone knows what to do when a little accidents due
B   
Chop it up and you'll be fine
Get back to the cheap red wine
         E           Em             B C C# D
Marry me in the Med, cut to the bed

Solo
  D#      E   B       F# E  D#      E   B       F# E 
e-3/7-6\4-------2h4p2-2--4--3/7-6\4-------2h4p2-2--4
B---------7\5-4---------------------7\5-4-----------
G---------------------------------------------------

B                    G
And Julia what can I do?
    E    F#    E             F#
Coz everyday I look a little more like
B                 G
Julia, what can I do?
    E    F#    E             F#
Coz everyday I look a little more like
E    F#    E             F#
Everyday I look a little more like
E    F#    E             F#        B
Everyday I look a little more like you!

http://www.sparkystabs.co.uk