Silver Sun - Too Much Too Little Too Late

Intro
  D        G        D        G
e-2-0-2-5--3-2-3-5--2-0-2-5--3-2-3-5
B-----------------------------------

Verse 1
D 
Guess it's over
G
Call it a day
F#m                  B
Sorry that it had to end this way
Em       
No reason to pretend
G
We knew it had to end
D
Some day
Em7
This way 

Verse 2 
D 
Guess it's over
G
The kicks are gone
F#m                     B
Whats the use of trying to hang on
Em
Somewhere we lost the key
G
So little left for you and me
         Em       F#
And it's clear to see

Chorus
G                               A  
Too much too little too late to lie again with you
F#m                             B
Too much too little too late to try again with you
Em                            Gm
We're in the middle of ending something that we knew
    D       Em F#
Was over
G                               A 
Too much too little too late to ever try again
F#m                               B
Too much too little too late lets end it being friends
Em                              Gm
Too much too little too late we knew it had to end
         D      Em
And it's over

Verse 3
D 
Yes it's over
G
The chips are down
F#m                  B
Baby all our bridges tumble down (to the ground)
Em
Whatever chance we tried
G
Let's face it why deny
     D                                                Em    F#
It's over  E---------------------------------------5-----6-----7----
           B---------3--3-----------------3--3--------7-----7-------
           G---2--2--------2--------2--2--------2-------------------
           D--------------------------------------------------------
           A--------------------------------------------------------
           E--------------------------------------------------------
           

Chorus
G                               A  
Too much too little too late to lie again with you
F#m                             B
Too much too little too late to try again with you
Em                            Gm
We're in the middle of ending something that we knew
    D           Em  F#
Was over, It's Over

Solo
  G         A         F#m         B Em        Gm         D   Em    F#
e---------------------------------------------------------------------------
B-3-3-2h3p2-2-3-2h3p2-2-----------------------------------------------------  
G-----------------------3-4-3-4\3-4--------------------------6-6-6-6h7p6-7--   
D------------------------------------5-4-2-0--------------------------------   
A---------------------------------------------5-4-2-0-0h2p0-----------------
E---------------------------------------------------------------------------
  Repeat solo over last chorus

Chorus
G                               A  
Too much too little too late to lie again with you
F#m                             B
Too much too little too late to try again with you
Em                            Gm
We're in the middle of ending something that we knew
    D       Em F#
Was over

G                             A 
Too much too little too late
F#m                           B
Too much too little too late

continue chorus chords to fade

http://www.sparkystabs.co.uk