Skunk Anasie-All In the Name of Pity 
 
Riff
E--------------------------------|-------|
B--------------------------------|---8---|
G*------------------------------*|---7--*|
D*------------------------------*|---6--*|
A-------7--7---------------------|---7---|
E--5h7--------5--3--5--3--0--0---|-------|
 
Verse
E-----------|
B-----------|
G---5---4---| Played after
D---5---4---| bass part.
A---3---2---|
E-----------|
 
Solo
E---0----------------------------|
B------3--0----------------------|
G*-----------3--2--0------2--0--*|
D*-------------------2--0-------*|
A--------------------------------|
E--------------------------------|