Skunk Anansie-All I Want
 
intro
guit1, disto+echo
-----------------12------------------12---------------0---------
--------------11-------11---------11------11----------0---------
-----------10-------------10--10-------------10-------0---------
------------------------------------------------------0---------
----------------------------------------------------------------
----------------------------------------------------------------
                                                   volume pedal swll
                                                       swell
guit1+2, disto (fig1)
----------------------------------------------------------------
----------------------------------------------------------------
--7--7--7--0-----------------------------------------------0----
--7--7--7--0--5--5--5--8---------8----8---8--8---8--8---8--0----
--5--5--5--0--5--5--5--6---------8----8---8--8---8--8---8--0----
--------------3--3--3--6---------6----6---6--6---6--6---6-------
repeat fi1 2 times for the intro 
****************************************************************
for the fisrt VERSE, play 4 times fig1
 
All i want is a mirror    so
I can see this so called brighter day    I'm 
watching all the world crawl back again
watching how it blows itself away
****************************************************************
CHORUS
GUIT1+2
----------------------------------------------------------------
------------------------------------------12-12-12-12-7-7-7-----
--5--5--5--5-----------7----7-7-7---7-7---12-12-12-12-7-7-7-----
--5--5--5--5--5--5--5--7----7-7-7---7-7---12-12-12-12-7-7-7-----
--3--3--3--3--5--5--5--5----5-5-5---5-5---10-10-10-10-5-5-5-----
--------------3--3--3-------------------------------------------
That's all i want................................it's......
 
-----------------6----6s11-6--6s11s------------------------------
-----------------6----6s11s6--6s11s------------------------------
-5-5-5-5---------3----3---s3--3------5-5-5-5--------7-----------
-5-5-5-5--5-5-5----------------------5-5-5-5--5-5-5-7-------------
-3-3-3-3--5-5-5----------------------3-3-3-3--5-5-5-5-----------
----------3-3-3-------------------------------3-3-3---------------
all that i want.......................that's all i want.......
 
----------------------------------------------------------------
--------------------12-12-12-12-7-7-7---------------------------
-7--7--7---7--7-----12-12-12-12-7-7-7---5-5-5-5-----------------
-7--7--7---7--7-----12-12-12-12-7-7-7---5-5-5-5--5-5-5-8--------
-5--5--5---5--5-----10-10-10-10-5-5-5---3-3-3-3--5-5-5-8--------
-------------------------------------------------3-3-3-6--------
..............................it's all i want...................
 
------------------------------------
------------------------------------
------------------------------------
----8--8--8--8--8--8--8-------------
----8--8--8--8--8--8--8-------------
----6--6--6--6--6--6--6-------------
...........want, want,...............end 1chorus....
*****************************************************************
replay fig1 4 times for the second VERSE
 
All that i want is  destruction,
I want to see it crumble beneath my toes
Smell the way my sure eyes burn away
I want to see it all today
***************************************************************
Then second CHORUS (same as the first)
At the end, you add this...
fig3
-----------------------------------------------------------------
-------------------------------------------------------------------
----------------------------------------------------------------
--8--8--8--8--8--8--8--8--8--8--8--8--8--8--8--------------------
--8--8--8--8--8--8--8--8--8--8--8--8--8--8--8--------------------
--6--6--6--6--6--6--6--6--6--6--6--6--6--6--6-------------------
 
all this with tremolo..
---1---2---3---4---5---6---7---8---9---10---11---12------------
---1---2---3---4---5---6---7---8---9---10---11---12-------------
-----------------------------------------------------------------
----------------------------------------------------------------
----------------------------------------------------------------
-----------------------------------------------------------------
******************************************************************
BRIDGE
guit1: disto
----------------------------------------------------------------
-----------------------------------------------------------------
-----------------------------------------------------------------
-----------------4--4--4--3----------3------3-----3----3--------
--3--3--3--3-----4--4--4--3----------3------3-----3----3--------
--3--3--3--3-----2--2--2--1----0-----1----0-1---0-1----1--------
--1--1--1--1-----------------------------------------------0-----
play it 3 times and in the same time, guit2 plays this...
 
--------------------------------------12------------------------
-----------------------------------11------------11-------------
--------------------------------10--------------------10--------
--3--3--3--3---9--9--9--8---------------------------------------
--3--3--3--3---9--9--9--8----------------------------------------
--1--1--1--1---7--7--7--6----------------------------------------
play it 2 times and add:
------------------------------------13---------12---------------
---------------------------------11------------------11s--------
------------------------------10---------------------------------
---3--3--3--3---9--9--9--8---------------------------------------
---3--3--3--3---9--9--9--8---------------------------------------
---1--1--1--1---7--7--7--6--------------------------------------
 
and then, guit1
--------------------------0-------------harm12------------------
---0----------harm12------0-------------harm12------------------
---0----------harm12------0-------------harm12-------------------
---0----------harm12------0-------------harm12------------------
----------------------------------------------------------------
----------------------------------------------------------------
 
then, guit2, with chorus effect, plays:
----------------------------------------------------------------
--3----3---0-----3--0--3--3----3-----3----3--3-----3--3--3-3-0-0
--3----3---0-----3--0--3--3----3-----3----3--3-----3--3--3-3-0-0
--3----3---0-----3--0--3--3----3-----3----3--3-----3--3--3-3-0-0
--1----1---------1-----1--1----1-----1----1--1-----1--1--1-1----
----------------------------------------------------------------
 
fig5
----------------------------------------------------------------
--3---3---0-----3--3--0--3----3-----3-----3--3-----3--3--3-3-0-0
--2---2---0-----0--0--0--3----3-----3-----3--3-----3--3--3-3-0-0
--0---0---0-----0--0--0--0----3-----3-----3--3-----3--3--3-3-0-0
------------------------------1-----1-----1--1-----1--1---------
----------------------------------------------------------------
play fig5 4 times and then replay the chorus...
at "want......want...", play:
 
----------------------------------------------------------------
-------------------------------------------12-12-12-12-7-7-7----
--5--5--5--5-----------7----7-7--7---7-7---12-12-12-12-7-7-7----
--5--5--5--5--5--5--5--7----7-7--7---7-7---12-12-12-12-7-7-7----
--3--3--3--3--5--5--5--5----5-5--5---5-5---10-10-10-10-5-5-5----
--------------3--3--3-------------------------------------------
all i want..........
----------------------------------------------------------------
----------------------------------------------------------------
--5--5--5--5-----------3----3---3---3--3----3--3---3--3----3----
--5--5--5--5--5--5--5--3----3---3---3--3----3--3---3--3----3----
--3--3--3--3--5--5--5--1----1---1---1--1----1--1---1--1----1----
--------------3--3--3-------------------------------------------
all i want....
 
----------------------------------------------------------------
-------------------------------------------12-12-12-12-7-7-7----
--5--5--5--5-----------7----7-7--7---7-7---12-12-12-12-7-7-7----
--5--5--5--5--5--5--5--7----7-7--7---7-7---12-12-12-12-7-7-7----
--3--3--3--3--5--5--5--5----5-5--5---5-5---10-10-10-10-5-5-5----
--------------3--3--3-------------------------------------------
all i want......
 
-----------------------------------------------------------------
-----------------------------------------------------------------
--5--5--5--5------------3----------------------------------------
--5--5--5--5---5--5--5--3----------------------------------------
--3--3--3--3---5--5--5--1----------------------------------------
---------------3--3--3-------------------------------------------
all i want....