Skunk Anansie-Brazen (Weep)

INTRO
guit1 with slight chorus 
Fig1:
---3-----------2-------0------------3----------3----------------
-------0--------------------------------0----------0------------
-----------0--------------------------------0----------0--------0
---2-----------0------------------------------------------------
-----------------------------3----------------------------------
-----------------------------------------------------------------
play fig1 3 times for the intro and finish with fig2:
---3-----------2-------0--------3--
------0-------------------------0--
---------0----------------------0--
---2-----------0----------------2--
--------------------------------3--
-----------------------------------
 
****************************************************************
VERSE
replay fig1 8 times and then play fig3:
-------------2----------2----------2----------2-----------------
--------3------3----------------------3----------3--------3-----
-------------------4----------------------------------4---------
----------------------------------------------------------------
---2------------------------------------------------------------
----------------------------------------------------------------
 
------------2----------------------------------2----------------
----4----------4--------4-------4------------------4--------4----
--------2----------2----------------2-------------------2-------
----------------------------------------4-----------------------
-2-------------------------2-------------------------------------
----------------------------------------------------------------
I called you brazen, i calles whore right to your face, 
and watched you silenty and publicly disgraced.
I didn't notice when you strengthened like a vice,
but you were trembling and burned beneath the ice.
ooh     ooh. ooh.
****************************************************************
CHORUS
Guit1+2 with dsito.
Fig4:
---0-------0---0---0-------2-------2--------2---2---2------2---
---0-------0---0---0-------3-------3--------3---3---3------3----
---0-------0---0---0-------2-------2--------2---2---2------2----
---2-------2---2---2-------0-------0--------0---0---0------0----
---2-------2---2---2--------------------------------------------
---0-------0---0---0--------------------------------------------
 
---0-------0---0---0-------2-------2--------2----3---2-----------
---0-------0---0---0-------3-------3--------3----3---3---3-------
---0-------0---0---0-------2-------2--------2----2---2---2---2---
---2-------2---2---2-------0-------0--------0----0---0-------0---
---2-------2---2---2--------------------------------------------
---0-------0---0---0--------------------------------------------
 
---0-----0--0----0--0--0----------------------------------------
---1-----1--1----1--1--1--3------3-----3---3-------3--3---------
---0-----0--0----0--0--0--0------0-----0---0-------0--0---------
---2-----2--2----2--2--2--0------0-----0---0-------0--0---------
---3-----3--3----3--3--3--2------2-----2---2-------2--2---------
----------------------------------------------------------------
 
--------------------------3------3-----3---3-------3--3----------
-----------------1-----1--1------1-----1---1-------1--1----------
---2-----2--2----2-----2--2------2-----2---2-------2--2---------
---2-----2--2----2-----2--2------2-----2---2-------2--2---------
---0-----0--0----0-----0--0------0-----0---0-------0--0---------
-----------------------------------------------------------------
 
---0-----0--0----0-----0-------2------2--------3----2------2----
---0-----0--0----0-----0-------3------3--------3----3------3-----
---0-----0--0----0-----0-------2------2--------2----2------2-----
---2-----2--2----2-----2-------0------0--------0----0------0----
---2-----2--2----2-----2----------------------------------------
---0-----0--0----0-----0----------------------------------------
X 2
 
---0-----0--0----0-----0----------------------------------------
---1-----1--1----1-----1-------3------3----3--3--3--3-----------
---0-----0--0----0-----0-------0------0----0--0--0--0------------
---2-----2--2----2-----2-------0------0----0--0--0--0------------
---3-----3--3----3-----3-------2------2----2--2--2--2------------
-----------------------------------------------------------------
 
-------------------------------3------3-------3---3----3---0-----
-----------------1---------1---1------1-------1---1----1---1----
---2-----2--2----2---------2---2------2-------2---2----2---2-----
---2-----2--2----2---------2---2------2-------2---2----2---2----
---0-----0--0----0---------0---0------0-------0---0----0---0-----
-----------------------------------------------------------------
 
----0--------------------0---------0------0----0------0---0---
----0------3-----3---3---1---------1------1----1------1---1-----
----0------2-----2---2---0---------0------0----0------0---0-----
----2------4-----4---4---2---------2------2----2------2---2------
----2------2-----2---2---3---------3------3----3------3---3-----
----0-------------------------------------------------------------
Play it 3 times
 
---------------------------------3---
---0-------------3---------------1---
---0-------------2---------------0---
---2-------------4---------------2---
---2-------------2---------------3---
---0---------------------------------
Why don't weep when i hurt you?
Why don't you weep when i cut you?
You don't bleed and the anger builds up inside.
Why don't you weep when i hurt you?
Why don't you weep when o cut you?
You don't bleed and the anger builds up inside
****************************************************************
SECOND VERSE:
play it like the first.
 
You said a prayer and i betrayed you witha kiss,
you enver realised that all that come to this.
So keep your dignity, don't throw it all to a <aste,
stronger feelings than you've ever learned to face.
*****************************************************************
SECOND CHORUS:
Same as the first
*****************************************************************
BRIDGE:
----3----3------3-----------------------------------------------
----1----1------1-----------------------------------------------
----0----0------0-------4--4--4--4--4--4--4--4--4--4--4--4-------
----2----2------2-------4--4--4--4--4--4--4--4--4--4--4--4------
----3----3------3-------2--2--2--2--2--2--2--2--2--2--2--2-------
----------------------------------------------------------------
 
----------------------------------------------------------------
------------------------------------------------------------------
--4--4--4--4--4--4--4--4--4--4--4--4--4--4--4--4--4--4--4--4----
--4--4--4--4--4--4--4--4--4--4--4--4--4--4--4--4--4--4--4--4-----
--2--2--2--2--2--2--2--2--2--2--2--2--2--2--2--2--2--2--2--2-----
-------------------------------------------------------------------
 
OH..............Why don't you weep .....
*****************************************************************
THen replay ad libe the chorus and finish with fig1
*******************************************************************