Skunk Anansie-Glorious Pop Song

guit1: slight distortion
verse
fig1
-7-------7--------7-7-7-5---------5----5-------5-5-5-7-----------
-0-------0--------0-0-0-0---------0----0-------0-0-0-0-----------
-8-------8--------8-8-8-6---------6----6-------6-6-6-8-----------
-9-------9--------9-9-9-7---------7----7-------7-7-7-9-------------
-----------------------------------------------------------------
----------------------------------------------------------------
play it 2 times
 
fig2
-7------7--------7----4---------4-------5---5------5-5-5---------
-0------0--------0----0---------0-------0---0------0-0-0-0------
-8------8--------8----5---------5-------6---6------6-6-6-0-------
-9------9--------9----6---------6-------7---7------7-7-7-0------
----------------------------------------------------------------
-----------------------------------------------------------------
 
---2-2-2-3-------3-2-2------------------------------------------
---3-3-3-0-------0-3-3----3-3-3-3-3-3-3-0-----------------------
---2-2-2-0-------0-2-2----2-2-2-2-2-2-2-0------------------------
---0-0-0-0-------0-0-0----0-0-0-0-0-0-0-0-----------------------
---------------------------------------------------------------------
-----------------------------------------------------------------
 
How can your face be so angry when all you're doing is looking 
at me.
You chastise me for my behaviour, it's gonna last too long.
*****************************************************************
second verse same as the first.
What an i now but your reaction, i'm all those memories you 
tried to steal,   this war will never be over, it's gonna be
last, too long.
*****************************************************************
Bridge
fig3
--0-0-0-0-----0-0-0-------0-0-2------3-2-------------------------
--1-1-1-0-----0-0-1-------1-1-3------3-3-0-----------------------
--2-2-2-1-----1-1-0-------0-0-2------2-2-0-----------------------
--2-2-2-2-----2-2-2-------2-2-0------0-0-0-----------------------
--0-0-0-2-----2-2-3-------3-3------------------------------------
--------0-----0-0-----------------------------------------------
play it 3 times
 
--6-6-6-6-6-6-6-6-6-6-6-6-6-6-6-6-------------------------------
--6-6-6-6-6-6-6-6-6-6-6-6-6-6-6-6--------------------------------
--7-7-7-7-7-7-7-7-7-7-7-7-7-7-7-7--------------------------------
--8-8-8-8-8-8-8-8-8-8-8-8-8-8-8-8--------------------------------
--8-8-8-8-8-8-8-8-8-8-8-8-8-8-8-8--------------------------------
--6-6-6-6-6-6-6-6-6-6-6-6-6-6-6-6--------------------------------
 
You're still a fucker
You're still a fucker to me.......
*****************************************************************
Verse 4, same as the other
You know, 
Lucifer cried when you looked at me, and the heavens rained 
down on your acid face.
What is left now taht it's over, shouldn't last
 
for the end of this verse (too......long....), play fig5:
--2-2-2-2-2-2-2-2---3-3-3-3-3-3-3-3------------------------------
--3-3-3-3-3-3-3-3---0-0-0-0-0-0-0-0------------------------------
--2-2-2-2-2-2-2-2---0-0-0-0-0-0-0-0------------------------------
--0-0-0-0-0-0-0-0---0-0-0-0-0-0-0-0------------------------------
--------------------2-2-2-2-2-2-2-2------------------------------
--------------------3-3-3-3-3-3-3-3-------------------------------
 
--2-2-2-2-2-2-2-2---2-2-2-2-2-2-2--------------------------------
--3-3-3-3-3-3-3-3---3-3-3-3-3-3-3-0------------------------------
--2-2-2-2-2-2-2-2---2-2-2-2-2-2-2-0------------------------------
--0-0-0-0-0-0-0-0---0-0-0-0-0-0-0-0-----------------------------
-----------------------------------------------------------------
----------------------------------------------------------------
 
****************************************************************
Chorus
same as the bridge with, at the end:
fig6
--6-6-6-6-6-6-6-0--0-0-0-0-0-0-0-0-------------------------------
--6-6-6-6-6-6-6-0--0-0-0-0-0-0-0-0--------------------------------
--7-7-7-7-7-7-7-1--1-1-1-1-1-1-1-1-------------------------------
--8-8-8-8-8-8-8-2--2-2-2-2-2-2-2-2------------------------------
--8-8-8-8-8-8-8-2--2-2-2-2-2-2-2-2------------------------------
--7-7-7-7-7-7-7-0--0-0-0-0-0-0-0-0-------------------------------
 
fig7
--0---0----0-0-0-0----0---0-----0-0-0-0-------------------------
--1---1----1-1-1-3----3---3-----3-3-3-3--------------------------
--0---0----0-0-0-0----0---0-----0-0-0-0--------------------------
--2---2----2-2-2-4----4---4-----4-4-4-4--------------------------
--3---3----3-3-3-5----5---5-----5-5-5-5-------------------------
----------------------------------------------------------------
 
--0---0----0-0-0-0----0---0-----0-0-0---------------------------
--2---2----2-2-2-2----2---2-----2-2-2-0--------------------------
--2---2----2-2-2-2----2---2-----2-2-2-0-------------------------
--2---2----2-2-2-2----2---2-----2-2-2-0--------------------------
--0---0----0-0-0-0----0---0-----0-0-0----------------------------
------------------------------------------------------------------
  play fig7 4 times and at the end replay fig6 1 time.
Na na na na na na.......
When it feels so real
And it feels so rezal
But it's all the same, it is all the same, what a life
And it's all the same, it is all the same what a life....
*****************************************************************
Solo:
--------7--------7---------9----------11---------7------7--------
-----------------------------------------------------------------
-6s8---------8--------9----------9s11-----6s8--------8----12s14--
----------------------------------------------------------------
-----------------------------------------------------------------
----------------------------------------------------------------
 
--14--------14s11----11s7----------7---------4---------4---------
---------------------------------------------4---------4----------
--------14----s11----11s8-----6s8------------5---------5--------
-----------------------------------------------------------------
-----------------------------------------------------------------
-----------------------------------------------------------------
 
--s5----5-----5-----------5---------3--------2------------------
--s5-------------------------------------------------------------
--s6-----------------4s6---------4--------2----------------------
-----------------------------------------------------------------
-----------------------------------------------------------------
-----------------------------------------------------------------
****************************************************************
Play the 4 verse like the first.
 
I believe i belong nowhere, may be there are winners but i 
always used, 
everything's hard to discover, when it lasts too  long.
***************************************************************** 
Play the bridge and the chorus like before and repeat to fade.
*****************************************************************