Skunk Anansie-I Can Dream

Intro:
E||-------------|
B||-------------|
G||-------------|
D||-------------|
A||-------------|
E||--12\---2----|

Verse
E||----------------------------------|
B||----------------------------------|
G||----------------------------------|
D||----------------------------------|
A||------4-----4-----4-----4---------|
E||--2-2---2-4---4-5---4-5---5-7-5-4-|

Pre-chorus
E||--------------------------------------------------|
B||--------------------------------------------------|
G||--------------------------------------------------|
D||--4--4--4--4--5--5--5--5--7--7--7--7--9--9--9--9--|
A||--4--4--4--4--5--5--5--5--7--7--7--7--9--9--9--9--|
E||--2--2--2--2--3--3--3--3--5--5--5--5--7--7--7--7--|

Chorus
E||--------------------------|--------------------------|
B||--------------------------|--------------------------|
G||--------------------------|--7--7--7--7--------------|
D||--4--4--4--4--5--5--5--5--|--7--7--7--7--2--2--2--2--|
A||--4--4--4--4--5--5--5--5--|--5--5--5--5--2--2--2--2--|
E||--2--2--2--2--3--3--3--3--|--------------0--0--0--0--|

Bridge
E||--------------------------|--------------------------|
B||--------------------------|--------------------------|
G||--------------------------|--------------------------|
D||--4--4--4--4--5--5--5--5--|--6--6--6--6--7--7--7--7--|
A||--4--4--4--4--5--5--5--5--|--6--6--6--6--7--7--7--7--|
E||--2--2--2--2--3--3--3--3--|--4--4--4--4--5--5--5--5--|

http://www.sparkystabs.co.uk