Skunk Anansie-Lately

Intro/Chorus
C E7 Am D7

Verse
Arpeggios of C E7 Am F

Pre chorus riff
E------------------------------------
B------------------------------------
G------------------------------------
D------------------------------------
A-12-12-12-14-14-14-15-15-15-17-17---
E------------------------------------

Sometiomes all the moments, that we savoured for the last,
Get crushed between the good and bad, from pressures we have had,
But you know I can't concieve the day, when feelings run too high,
To work out all the stale terrain, emotions try to hide,
When I try.

Lately I can't seem to colour what we've lost,
It all seems like bad means, when lovers turn from lust,
Then I try, try to smoke alone.

These shattered lies, with no compromise,
Fall through this fragile hell.
You see the drinks stay sipped, cos we've lost our grip.
To exhausted to rebel.
I try.

Lately I can't seem to colour what we've lost,
It all seems like bad means, when lovers turn from lust,
Then I try, try to smoke alone.

Solo
E||---------|------------------------|--------------------------|
B||---------|------------------------|--------------------------|
G||---------|------------------------|--------------------------|
D||---------|------------------------|--------------------------|
A||--0-2-3--|--2----3-2-0--3----3----|--2----3-2-0--5----0-2-3--|
E||---------|--0-----------1----1----|--0-----------3-----------|
                                                                             
------------------------|--------------------------|------------------------|
------------------------|--------------------------|------------------------|
------------------------|--------------------------|------------------------|
------------------------|--------------------------|------------------------|
--2----3-2-0--3----3----|--2----3-2-0--5----0-2-3--|--2----3-2-0--3----3----|
--0-----------1----1----|--0-----------3-----------|--0-----------1----1----|
                                                                              
--------------------------|--------------------------|-----------------------|
--------------------------|--------------------------|----------8------------|
--12~---12~---12~---12~---|--12~---12~---12~---12\---|-----------------------|
--------------------------|--------------------------|--10-------------10----|
--------------------------|--------------------------|-----------------------|
--------------------------|--------------------------|-----------------------|
                                                                    
---------------------|---------------------|-----------------------|
---------8-----------|---------8-----------|-----------------------|
---------------------|---------------------|-------------5/---7----|
--9-------------9----|--7-------------5----|--3------3h5-----------|
---------------------|---------------------|-----------------------|
---------------------|---------------------|-----------------------|
                                                                        
----------------------|------------------------|-----------------------|
---------8/-----13----|--12--------------12----|--10-------------------|
--5-------------------|----------12------------|----------9------12----|
----------------------|------------------------|-----------------------|
----------------------|------------------------|-----------------------|
----------------------|------------------------|-----------------------|
                                                    
----------------------|--------20--------20--------|
--16b-----16~---------|--20b-------20b-------20b---|
----------------------|----------------------------|
----------------------|----------------------------|
----------------------|----------------------------|
----------------------|----------------------------|
                                          
----------------------------------------|
----------------------------------------|
----------------------------------------|
----------------------------------------|
--12-12-12-14-14-14-15-15-15-17--17-----|
----------------------------------------|

Lately I can't seem to colour what we've lost,
Oh it all seems like bad means, when lovers turn from lust,
Oh and lately I can't seem to colour what we've lost,
Oh it all seems like bad means, when lovers, when lovers turn from lust,
Then I try, try to smoke alone.

http://www.sparkystabs.co.uk