Skunk Anansie-Little Baby Swastikkka

Part 1
(dist)
     C5       B5          G5       F#5         F5
E||--------------------|--------------------|-------------------|
B||--------------------|--------------------|-------------------|
G||--5--------4--------|--------------------|-------------------|
D||--5--------4--------|--5--------4--------|--3----------------|
A||--3--------2--------|--5--------4--------|--3----------------|
E||--------------------|--3--------2--------|--1----------------|

Part 2
(clean)
G E||----------------------|------------------------|
U B||--5--------8----------|-12--------15-----------|
I G||------4---------7-----|------11----------14----|
T D||----------------------|------------------------|
A A||----------------------|------------------------|
R E||----------------------|------------------------|

B G||-------------0-2-4--0-|-------------0-2-4--0---|
A D||--2--2-----2----------|--2--2-----2------------|
S A||----------------------|------------------------|
S E||----------------------|------------------------|

Part 3
(dist)
G E||-------------------------|--------------------------|
U B||--------8----------------|--------8-----------------|
I G||--------7----------------|--------7-----------------|
T D||--------6----------------|--------6-----------------|
A A||--7--7--7--------0-2-----|--7--7--7--------0-2------|
R E||--0--0-------0-3------3--|--0--0-------0-3------3---|

B G||-------------0-2-4--0--|---------------0-2-4--0---|
A D||--2--2-----2-----------|--2--2-------2------------|
S A||-----------------------|--------------------------|
S E||-----------------------|--------------------------|

Part 4
(dist)
E||-------------------------|-------------------------|-------------------------|
B||-------------------------|-------------------------|-------------------------|
G||--5----------------------|--2----------------------|-------------------------|
D||--5----5--5--5--5--5--5--|--2----2--2--2--2--2--2--|--4----------------------|
A||--3----3--3--3--3--3--3--|--0----0--0--0--0--0--0--|--4----4--4--4--4--4--4--|
E||-------------------------|-------------------------|--2----2--2--2--2--2--2--|

--------------------------|
--------------------------|
--4--4--4--4--4--4--4--4--|
--4--4--4--4--4--4--4--4--|
--2--2--2--2--2--2--2--2--|
--------------------------|

Can't transcribe the solo, except for the chords at the start of each part.
They are:
E||------------|
B||------------|
G||------------|
D||--2----5----|
A||--2----5----|
E||--0----3----|

and:

E||------------|
B||------------|
G||-------7----|
D||--2----7----|
A||--2----5----|
E||--0---------|

Lyrics:

Who put the little baby swaastikka on the wall?
Who put the little baby swaastikka on the wall?
Wasn't very high couldna been more than four years old.
That's who put the little baby swastikka on the wall.

Who put the little baby nigga-head on the wall?
Who put the little baby nigga-head on the wall?
The eyes were so big couldna been more than baby scrawls.
Thats who put the little baby nigga-head on the wall.

You rope them in young.  x2
So small, so innocent, so young,
So delicately done, grown up in your poison.

Who put the little baby K's up on the wall?
Who put the little baby K's up on the wall?
Dey got em in a line I bet they wished they coulda sprayed up more.
That's who put der little baby K's up on the wall.

Who kicked the little baby's head against the wall?
Who kicked the little baby's head against the wall?
Who kicked the little baby's head against the wall?
We kicked the little baby's head against the wall.

http://www.sparkystabs.co.uk