Skunk Anansie-Milk Is My Sugar 

Intro:
guit1 with disto (fig1) 
-------------------7--7--7---------------------7--7--7-----------
-------------------7--7--7---------------------7--7--7----------
-------------------7--7--7---------------------7--7--7----------
--3--3--3-----2----6--6--6----3--3--3----2-----6--6--6--3--3--3-
--3--3--3-----2----7--7--7----3--3--3----2-----7--7--7--3--3--3-
--1--1--1-----0---------------1--1--1----0--------------1--1--1--
 
------7--7--7-----------------7--7--7---------------------------
------7--7--7-----------------7--7--7----------------------------
------7--7--7-----------------7--7--7----------------------------
-2----6--6--6----3--3--3---2--6--6--6--------3--3--3-------------
-2----7--7--7----3--3--3---2--7--7--7--------3--3--3-------------
-0---------------1--1--1---0-----------------1--1--1-------------
 
fig2
--------------------------
---12--12---------------12
--------------------------
----------12--------12----
---------------12---------
repeat fig2 4times before the verse
****************************************************************
VERSE
repeat fig2 8 times for the verse
Milk is my sugar, sweet grovelling thy shall convert me my 
favorite sin.
Meat makes me snapy, snap back and thigh, good work for Pelow, 
i'm so alive.
****************************************************************
CHORUS
fig3
----------------------------------------------------------------
------------------------------------------------X---X------------
------------------------------------------------X---X-----------
------------------------------------------------X---X-----------
--5------3------5-------8-------5-------------------------------
--3------1------3-------6-------3--------------------------------
Milk is my sugar..........
 
repeat fig3 3 times
it makes me happy. milk is my sugar.....sweet sweet...sweet....
fig4
----------------------------------------------------------------
-----------------------------------------------------------------
--------------------------------------------7--7--7--7--7--7--7-
--------------------------------------------7--7--7--7--7--7--7--
--5---------3-------5-----------------------5--5--5--5--5--5--5-
--3---------1-------3---------------------------------------------
 
then repeat fig3 2 times
for the end of the chorus....fig4
 
-----------------------------
-----------------------------
-----------------------------
-------------------3--3--3---
-------------------3--3--3---
-------------------1--1--1---
****************************************************************
SECOND VERSE...same as the first....
*****************************************************************
SECOND CHORUS....same as the verse....
******************************************************************************
BRIDGE
heavy percussion groove...fig5
----------------------------------------------------------------
-----------------------------------------------------------------
-----------------------------------------------------------------
-----------------------------------------------------------------
--------------X--X--X--X--------------------------X--X--X--X----
--X--X--X--X---------------X---------------X---------------------
 
repeat fig5 11 times before "the bass solo"
 
fig6
--4--4--4--4--4--4--4--4--4--4--4--4--4--4--4--4----------------
--5--5--5--5--5--5--5--5--5--5--5--5--5--5--5--5----------------
--4--4--4--4--4--4--4--4--4--4--4--4--4--4--4--4----------------
------------------------------------------------------------------
-----------------------------------------------------------------
-----------------------------------------------------------------
 
--10--10--10--10--10--10--10--10--10--10--10--10--10--10s-------
--10--10--10--10--10--10--10--10--10--10--10--10--10--10s-----------
--10--10--10--10--10--10--10--10--10--10--10--10--10--10s---------
-----------------------------------------------------------------
-----------------------------------------------------------------
------------------------------------------------------------------
 
repeat it 2 times....
 
then the solo:
disto+delay
---7f------7f-------12f------12f-------7f-------7f---------------
---10f-----10f------15f------15f-------10f------10f---------------
----------------------------------------------------------------
-----------------------------------------------------------------
------------------------------------------------------------------
------------------------------------------------------------------
 
---12f--------12f-----------------------------------------------
---15f--------15f------------------3---------3-------------------
-----------------------------------3---------3----3-5-3-----------
------------------------------3---------5-------5----------5--------
-----------------------3-5---------------------------------------
-------------------3----------------------------------------------
 
-----------------------------------------------------------------
---6s8-8-8-8-8-8-8-6s8----8--8s---------------------------------
----------------------------------3f-------0-----0------0---------
-------------------------------------5-----0--3--0------0---8---
----------------------------------------------3-------------8-------
-----------------------------------------------------------------
 
----------------------------------------------------------------
--------11-------------------------------------------------------
10s12---12-----12--------3----5f----5f------5-3----3----------3--
10s12----------12-------------------------------5-----------5----
-----------------------------------------------------------------
------------------------------------------------------------------
 
------------------------------------------------------------------
-------------------------------------------0---------------------
-3-4-3-------3-4-3------4-3----------------0-------------------------15
------5-3-5-------5-3-5-----5-3------------0---------------------
-------------------------------5-3-------------------------------------
-----------------------------------0---------------------------
 
--------------------------------------------------------------------
------18f-----18-------------------------------------------------
------17f-----17------17-------17-15-17-15-17-15-----------------
-----------------------------------------------------------------
------------------------------------------------------------------
------------------------------------------------------------------
 
-------------18-----------------
---18f--------------18f---------
--------------------------------
--------------------------------
--------------------------------
--------------------------------
 
FINAL
---------------------------------------
---------------------------------------
------------------------------X--X-----
---------------------3--------X--X-----
-5----3-----5--------1----5------------
-3----1-----3-------------3------------
REPEAT AD LIBE....