Skunk Anansie-On My Hotel TV
 
guitar disto +wah wah
****************************************************************
INTRO:
fig1
---------------------0
---------------------0
---------------------0
---------------------2
--2------------------2
--0--3-----3------3--0
 
play fig1 4 times for the intro
****************************************************************
VERSE1:
 
fig1:
play it 7 times
****************************************************************
CHORUS1:
 
fig2
---------------0---------------------------
---------------0-----15--15--15--15--15--15
---------------0-----x---x---x---x---x---x-
---------------2-----12--12--12--12--12--12
--2------------2---------------------------
--0--3----3--3-----------------------------
 
play fig2 4 times then, play fig3 2 times:
--------------------------------------------------------------------------
--------------------------------------------------------------------------
--------------------------------------------------------------------------
--2-2-2-3---3-4-4-4-5-5-5-6-6-7-7-8-8-8-9---9-10-10-10-11-11-11-12-12-13
--2-2-2-3---3-4-4-4-5-5-5-6-6-7-7-8-8-8-9---9-10-10-10-11-11-11-12-12-13--
--0-0-0-1---1-2-2-2-3-3-3-4-4-5-5-6-6-6-7---7-8--8--8--9--9--9--10-10-11
 
for the end of the chorus, play fig1 2 times
*************************************************************
VERSE2
 
Play fig1 8 times, then fig2 4 times and fig3 2 times and add
fig4:
----------------------
----------------------
----------------------
-----------3-3-3-2----
-----------3-3-3-2----
-----------1-1-1-0----
*************************************************************
POST BRIDGE:
 
fig5:
                                   full  full
------------------------------------------------------------
----------------------------------0-----0-------------------
----------------------------------2-----2-------------------
--2-2-2-2-2-2---2-2-2-3-3-3-2---------------------3-3-3-2---
--2-2-2-2-2-2---2-2-2-3-3-3-2---------------------3-3-3-2---
--0-0-0-0-0-0---0-0-0-1-1-1-0---------------------1-1-1-0---
 
                                   full  full   pick slide
------------------------------------------------------------
----------------------------------0-----0-------------------
--------7--7sl--------------------2-----2------x------------
----7h9---------3-3-3-2-------------------------------------
----------------3-3-3-2-------------------------------------
----------------1-1-1-0-------------------------------------
 
**************************************************************
BRIGE
FIG6
------------------------------------------------------------
------------------------------------------------------------
-----------------5-5-5-5-5-5-5-5-6-6-6-6-6-6-6-6-----------
-2-2-2-2-2-2-2-2-5-5-5-5-5-5-5-5-6-6-6-6-6-6-6-6------------
-2-2-2-2-2-2-2-2-3-3-3-3-3-3-3-3-4-4-4-4-4-4-4-4------------
-0-0-0-0-0-0-0-0---------------------------------------------
 
-------------------------------------------------------------
-------------------------------------------------------------
-----------------2-2-2-2-2-2-2-2-----------------------------
-2-2-2-2-2-2-2-2-2-2-2-2-2-2-2-2-5-5-5-5-5-5-5-5-------------
-2-2-2-2-2-2-2-2-0-0-0-0-0-0-0-0-5-5-5-5-5-5-5-5-------------
-0-0-0-0-0-0-0-0-----------------3-3-3-3-3-3-3-3-------------
 
-------------------------------------------------------------
-------------------------------------------------------------
-------------------------------------------------------------
-4-4-4-4-4-4-4-4-3-3-3-3-3-3-3-3-----------------------------
-4-4-4-4-4-4-4-4-3-3-3-3-3-3-3-3-----------------------------
-2-2-2-2-2-2-2-2-1-1-1-1-1-1-1-1-----------------------------
*************************************************************
VERSE3:
Play fig1 4 times and fig2 8 times and add fig4
*************************************************************
FINAL CHORUS:
 
play fig5 1 times and then, play fig7:
                                     full  full
-------------------------------------------------------------
------------------------------------0----0-------------------
------------------------------------2----2-------------------
----------0------3-3-3-2-----------------------3-3-3-2-------
----0h2----------3-3-3-2-----------------------3-3-3-2-------
-----------------1-1-1-0-----------------------1-1-1-0-------
 
                                     full  full    pick slide
-------------------------------------------------------------
------------------------------------0-----0------------------
------------------------------------2-----2------------------
---------0-------3-3-3-2-------------------------x-----------
----0h2----------3-3-3-2-------------------------------------
-----------------1-1-1-0-------------------------------------
 
--------------0-
--------------0-
--------------0-
--------------2-
--------------2-
-2------------0-
-0--3----3--3---