Skunk Anansie-Pickin' On Me

Verse
E---------2^0----------       -----3^0-------------5^0-----
B---------------0------       ---------0---------------0---
G------------------0---       -----------0---------------0-
D---------------------- X2    -----------------------------
A----------------------       -3-3-----------5-5-----------
E-0-0------------------        ----------------------------

Chorus
E------2^0-----------2^0-----------2^0-------
B----------0-------------0-------------0-----
G------------0-------------0-------------0---
D-0-0---------------------------------------- X2
A---------------3-3--------------------------
E------------------------------0-0-----------

End of Chorus Riff
E---------------------(12)---Harmonics
B---------------------(12)---
G---------------------(12)---
D----------0h2---------------
A------0h2-------------------
E--0h3-----------0-----------