She's My Heroine-Skunk Anansie

intro
guit1: clean with tremolo
guit2: disto
 
----------------------------------------------------------
----------------------------------------------------------
--------0-5-5-2--2-2-2-2--2-2--2-2-2-2--------------------
-2-2-2--0-5-5-2--2-2-2-2--2-2--2-2-2-2--------------------
-2-2-2--0-3-3-0--0-0-0-0--0-0--0-0-0-0--------------------
-0-0-0----------------------------------------------------
guit2: tacet(stop), guit1:
----------------------------------------------------------
----------------------------------------------------------
--------0-5-5-5-2----2----------2----------2--------------
-2-2-2--0-5-5-5-2----2-------2-----------2----------0-----
-2-2-2--0-3-3-3-0----0-----0------------------------------
-0-0-0-------------------------------3-----------2--------
 
*********************************************************
verse
guit1: clean sound
fig1
-------------------------0-
---------------------------
--------4------------------
------2---2-----2----------
-------------3-------------
-0-------------------------
repeat fig1 4 times
then play fig2 2 times
figu2
---------------------------
---------------------------
------------------------2--
------2-------------2------
----2----0--0--------------
--0------------------------
 
and before the chorus, repeat fig1 2 times
 
I can't weep only cry, i can move,
I deny.  See my smile eat, eat, eat, fe, fe feed you, 
so damn sweet.
**********************************************************
chorus fig5
----------------------------------------------0-----------
----------------------------------------------0---0--0---
-2---2--2---2--2----2---2--2------0-----------0---0--0---
-2---2--2---2--2----2---2--2------0------2--------2--2----
-0---0--0---0--0----0---0--0------0------2--------2--2---
-----------------------------------------0--------0--0----
 
----------------------------------------------0--------------
----------------------------------------------0-----------
-2---2--2---2--2----2---2--2------------------0-----------
-2---2--2---2--2----2---2--2------------------2----------
-0---0--0---0--0----0---0--0--------2---------------------
--------------------------------0---0---------------------
then take fig1 4 times
fig6
---------------------------
---------------------------
-------0--5----5-----------
-2--2--0--5----5-----0-----
-2--2--0--3----3-----0-----
-0--0----------------0-----
play it 4 times
for the last: fig7
---------------------------------------------------------
---7bend-------------------------5tremolo-----------------
----------------------------------------------------------
------------------------------------------------------------
---------------------------------------------------------
---------------------------------------------------------
she's calling................she's calling........
She's my heroine.............she's my heroine.....
Fingers going down, down......Shes my heroine.
**********************************************************
Second verse same as the first
 
You're too weird, creep, creep, creep, smily face,
so discrete   La la, lover, evil eyes, 
I can't sleep for hr lies.
*********************************************************
 Second chorus same as the first
do not play fig7
guit3 with disto and wah-wah:
fig8
Em...........................A5..........................
----------------------------------------------------------
---7-----8-----7--5---------5tremolo----------------------
----------------------------------------------------------
-----------------------------------------------------------
----------------------------------------------------------
-----------------------------------------------------------
guit3 play fig7 4 times and ather guit cont. rytm:
Em, C, A5, Em, C, A5, Em, C, A5
 
then fig9
guit3
------------------------------
------------------------------
-s4------------s5-------------
------------------------------
------------------------------
------------------------------
other guit cont. rytm
Smashed you in the face
 
guit1+2 play fig10
-----------------------------
-----------------------------
-----------------5-5-5-0-----
--2-----2--------5-5-5-0-----
--2-----2--------3-3-3-0-----
--0-----0--------------------
play it 5 times
then fig11
------------------------------12
------0-----------------------12
------0----5---5---X-X-X-X----12
--2---2----5---5---X-X-X-X------
--2---2----3---3---X-X-X-X------
--0---0-------------------------
 
Up against the wall, still your secret's safe
there's no one i can call
She's my heroine
THen the guitar stop and bass plays
 
and finally:
----------------------------------------------------------
---s12---------s13----------s14--------------------------
----------------5--5--5--0---2-2-2-2--2--2-2-2-2-2-2-----
-----2-----2----5--5--5--0---2-2-2-2--2--2-2-2-2-2-2-----
-----2-----2----3--3--3--0---0-0-0-0--0--0-0-0-0-0-0-----
-----0-----0----------------------------------------------
play it 4 times
She's my heroine
She's my heroine
She's my heroine
She's my heroine
**********************************************************************