Skunk Anansie-Twisted (Everyday Hurts)

guit1+2: disto
fig1
-----------------------------------------------------------------
-----------------------------------------------------------------
--9--9-----9-9-9-9--9-----9-9-9-----9--9-----9-9-9-9--9--9-------
--9--9-----9-9-9-9--9-----9-9-9-----9--9-----9-9-9-9--9--9------
--7--7-----7-7-7-7--7-----7-7-7-----7--7-----7-7-7-7--7--7------
----------------------------------------------------------------
 
----------------------------------------------------------------
----------------------------------------------------------------
--5--5-----5-5-5-5--5--------5---------5-----4-4-----------------
--5--5-----5-5-5-5--5--------5---------5-4-4-4-4-3-3--------------
--3--3-----3-3-3-3--3--------3---------3-4-4-2-5-3-3-------------
-----------------------------------------2-2-----1-1-------------
 
play fig1 2 times
*****************************************************************
VERSE
Fisrt, only the bass plays:
I cried on my blood day, there was nothing that i could hold to,
just a line could have helped remind me of you, of you.
 
after that comes the guitar (with wah-wah):
fig2
--------------
--7---7s5-----
--------------
--4---4s2-----
--------------
--------------
repeat it 4 times and play after:
fig3
-------------
--8---8s7----
-------------
--5---5s4----
-------------
-------------
play fig3 4 times and then replay fig 2 3 and finish with this:
---------------6---6---6
--8---8s5---------------
---------------3---3---3
--5---5s4---------------
------------------------
------------------------
 
I screamed till the blood came, i was living in a cloud of hope,
lovers kiss then they make a wish to the end, 
they pretend.
*****************************************************************
CHORUS: with disto
fig4
------------------------------------------7---------------------
----------------------------------------------7--------------0--
--9----------------------------------------------9---------------
--9-------------------------------------------------------------
--7--------------------------------------------------------------
----------------------------------------------------------------
 
-----------------------------------------3----------------------
--------------------------------------------3-------------------
--5---------------------------------------------5---------------
--5-------------------------------------------------------------
--3-------------------------------------------------------------
-----------------------------------------------------------------
 
'Cos everyday hurts a little more, 
and everyday husrt a little more.
 
----------------------------------------------------------------
----------------------------------------------------------------
---2--------------------------------------------------2---------
---2--------------------------------------------------2---------
---0---------------------------------------0-----0----0---------
------------------------------------------------------------------
anything to belong, to be strong, to say there's nothing
----------------------------------------------------------------
------------------------------------------------------------------
---------2--------4---4---4------4---4---4------4---4---4-------
---------2--------4---4---4------4---4---4------4---4---4-------
--0---0--0--------2---2---2------2---2---2------2---2---2-------
----------------------------------------------------------------
 wrong. Everyday ...                    
------------------------------------
------------------------------------
---4------5------6------------------
---4------5------6--------5---------
---2--0---3---0--4---0----5---------
--------------------------3---0-----
 
guit1+2: fig4, guit4:6
guit3: play fig5:
 
hurts a little more,'cos everyday hurts a little more.......
----5--5--5--5--5---3------5-------5--5--5----5--7---3----------
----5--5--5--5--5---5------5-------5--5--5----5--5---5----------
----------------------------------------------------------------
-----------------------------------------------------------------
-----------------------------------------------------------------
----------------------------------------------------------------
fig6
----14--14--14--14--14---12----14---14--14--12--14--15--12------
----------------------------------------------------------------
----11--11--11--11--11---9-----11---11--11--9---11--12--9-------
-----------------------------------------------------------------
----------------------------------------------------------------
----------------------------------------------------------------
and i'll do anything
-----------------------------------------------------------------
-----------------------------------------------------------------
--2------------2-------------2----------4--4--4-----------------
--2------------2-------------2----------4--4--4-----------------
--0----0--0----0------0--0---0----------2--2--2-----------------
----------------------------------------------------------------
yes i'll do anything to belong, to be strong, to say there's 
 
----------------------------------------------------------------
----------------------------------------------------------------
--4---4---4-----4---4---4----4-----5------6---------------------
--4---4---4-----4---4---4----4-----5------6------5--------------
--2---2---2-----2---2---2----2--0--3--0---4---0--5--0------------
-------------------------------------------------3---------------
 
fig7
---5-5-5-5-5-5--3----5-5-5----5-5-5-3-5-7-3-3--------------------
---5-5-5-5-5-5--5----5-5-5----5-5-5-5-5-5-5-5-------------------
-----------------------------------------------------------------
----------------------------------------------------------------
-----------------------------------------------------------------
----------------------------------------------------------------
 
---5-5-5-5-5-5--3----5-5-5----5-5-5-3-5-7-3-3-------------------
---5-5-5-5-5-5--5----5-5-5----5-5-5-5-5-5-5-5-------------------
-----------------------------------------------------------------
------------------------------------------------------------------
----------------------------------------------------------------
----------------------------------------------------------------
 
---5-5-5-5-5-5--3----5-5-5---5-5-5-3-5-5-7-3-3-------------------
---5-5-5-5-5-5--5----5-5-5---5-5-5-5-5-5-5-5-5-------------------
----------------------------------------------------------------
----------------------------------------------------------------
----------------------------------------------------------------
----------------------------------------------------------------
 
*******************************************************************
 
SECOND VERSE
same as the fisrt:
I cried in the sun light, 
would i fake all the times i loved you,
just a play in a game i twisted with you.
Ineed to believe you,
sacrificed all the lies we made up,
how we kissed then w made our wish to the end,
to the end.....
 
****************************************************************
sSECOND CHORUS:
Same as the first. but do not play fig7
****************************************************************
after the bass solo
everyday hurts.........everyday hurts....
come sthe guitar solo:
----------------------0-----------------------------------------
---12s---------3s5----0---------------------0-------------------
---12s---14f----------0----7f----7fre-------0--------------------
---12s--------------------------------------0--------------------
----------------------------------------------------------------------
----------------------------------------------------------------
 
--h12----------12----------------------------0-----------------
--h12----X--X--12--------14b14b----14--12----0------------------
--h12----X--X------------14b14b----14--12----0---9b---9bre---7--
--h12----X--X-------14--------------------X----------------------*
-----------------------------------------------------------------
----------------------------------------------------------------
 
 
time makes me confide in you, 
so contrived were the words you sold me now, nothing can swalow 
the feelings you shallow inside.
---------------------------------------8---------------0---------
---------------------------------------9---------------0--------
---------------------------------------9---------------0--------
--2------------------------------------10--------------2---------
--2----------------------------------------------------2--------
--0----------------------------------------------------0--------
 
----------------------------------------------------------------
-----------------------------------------------------------------
--2---2---2---2---2---2----9------------------------------------
--2---2---2---2---2---2----9-------------------------------------
--0---0---0---0---0---0----7-------------------------------------
------------------------------------------------------------------
*****************************************************************
to finish the song, play the chorus to the end.
****************************************************************