Skunk Anansie - Weak

Chords:
Em  022000
D   xx0232
C   x32010
C** x32013
G   320033
A   x02220
D*  xxx(14)(15)(14)

Riff1 (Intro / chorus)
e-0---0-------2-------0---0--0------------------|-0---0-------2-------0----------------------|
B-0---0-------3-------1---1--1---1h3p1----------|-0---0-------3-------1----------------------|
G-0---0-------2-------0---0--0---------2p0---0--|-0---0-------2-------0----------------------|
D-2---2---0h2-0-------2---2--2-------------2----|-2---2---0h2-0-------2----------------------|
A-2---2---------------3---3--3------------------|-2---2---------------3----------------------|
E-0---0-----------------------------------------|-0---0--------------------------------------|
  Em          D       C*                          Em          D       C

[Intro]
Em   D   C*
Em   D   C

Em           D           C
 Lost in time_  I can't count__ the__ words__
Em              D              C
 I said when I thought_ they_ went_ un_heard__
Em             D                C
 All of those harsh_ thoughts_ so__ un_kind_
       Em           D        C    C**
 Cos I wanted you__

Em               D         C
 And now_ I sit here_ all__ alone_
Em               D             C
 So here sits a BLOODY MESS_, tears_ fly_ home__
Em              D           C
 A circle of an__gles, deep__ in_ war__
       Em           D        C
 Cos I wanted you__

[Chorus1]
              Em           D        C*
Weak__ as_ I_ a___a___am___,   No__ tears__ for_ you__
              Em           D        C*
Weak__ as_ I_ a___a___am___,   No__ tears__ for_ you__
              Em           D         C*
Deep__ as_ I_ a___a___am___,   I'm__ no_ ones_ fool__
              Em           D        C
Weak__ as_ I_ a________________a___am__

Em             D        C
 So what am I now_ I'm love's_ last_ home_
Em               D             C
 I'm all of the soft_ words_ I__ once owned__
Em                  D                  C
 IF_ I_ OPENED_ MY HEART, THERE'D_ BE NO_ SPACE FOR AIR__
       Em           D        C
 Cos I wanted you__

[Chorus2]
              Em           D        C*
Weak__ as_ I_ a___a___am___,   No__ tears__ for_ you__
              Em           D        C*
Weak__ as_ I_ a___a___am___,   No__ tears__ for_ you__
              Em           D         C*
Deep__ as_ I_ a___a___am___,   I'm__ no_ ones_ fool__
              Em           D        C*
Weak__ as_ I_ a________________a___am__

[Bridge]
G           A
   In this_ tain__ted_ soul__
         C                                D
In this_ weak__ young_ heart__  Am I too_ much_ for_ you_
G           A
   In this_ tain__ted_ soul__
         C                                D
In this_ weak__ young_ heart__  Am I too_ much_ for_ you_  oh no_owhoo_oh oh
G           A
   In this_ TAIN__ted_ soul__
         C                                D                                D*
In this_ WEAK__ young_ heart__  Am I too_ much_ for_ you____  yeah_yea_yea_eaah!

[Chorus3]
              Em           D        C*
Weak__ as_ I_ a________________a___am__
              Em           D        C*
Weak__ as_ I_ a________________a___am__
              Em           D        C*
Weak__ as_ I_ a________________a___am__
              Em           D        C*
Weak__ as_ I_ a_a_am___, a_a_am___ a_a_am___

Riff2 Solo Chorus
e-15-15-15-15-12-12---------------12-12----------------------
B-------------------15-15-15-15------------------------------
G---------------------------------------14-16-16-16-16-14-14-
D------------------------------------------------------------
A------------------------------------------------------------
E------------------------------------------------------------

              Em            D         C*   (&Riff2)
WEAK__ AS_ I_ AM___,   Am__ I__ too__ much__ for you_?
              Em            D         C*   (&Riff2)
WEAK__ AS_ I_ AM___,   Am__ I__ too__ much__ for you_?
              Em            D         C*   (&Riff2)
WEAK__ AS_ I_ AM___,   Am__ I__ too__ much__ for you_?
              Em            D         C*   (&Riff2)
WEAK__ AS_ I_ A__A__A__A__A__A__A__A__AM___,          yeah__

[Outro]
Riff3a
Riff3a
Riff3a
Riff3b

Riff3a Outro
e----------------------------------------|
B----------------------------------------|
G------------7----5/7--7\5---------------|
D-2--2----4--4----x------x--5/7-7-7-7-5--|
A-2--2----5--5----3/5--5\3---------------|
E-0--0----------------------3/5-5-5-5-3--|
  E5      D      C5 D5  C5 G5 A5      G5

Riff3b Outro
e----------------------------------------|
B----------------------------------------|
G------------7----5~~--------------------|
D-2--2----4--4----5~~--------------------|
A-2--2----5--5----3~~~-------------------|
E-0--0-----------------------------------|
  E5      D       C5