Skunk Anansie-We Love Your Apathy 

intro (fig1) guitar with chorus
---0-2-3-2------0-2-3-2-----0-2-3-2------3----------------------
----------------------------------------------------------------
----------------------------------------------------------------
---------------------------------------------------------------
----------------------------------------------------------------
---------------------------------------------------------------
***************************************************************
fig2, guit with disto
---------------------------------------------------------------
--------------------------------------------------3---3--------
--------------5---5--------2---2--------2---------2---2--------
--2------2----5---5--------2---2--------2---------0---0----2----
--2------2----0---0--------0---0--------0------------------2----
--0------0-------------------------------------------------0---
fig3
----------------------------------------------------------------
---------------------------------------------------------------
-------------5---5--------2---2--------------------------------
--2------2---5---5--------2---2---5---5---4---4---3---3---2----
--2------2---0---0--------0---0---5---5---4---4---3---3---2-----
--0------0------------------------3---3---2---2---1---1---0----
 
repeat fig2 7X and then fig3 1X
another time fig2 7X and fig3 1X 
during the firste verse:
The sweeter th taste i love it, that eaten your guted spine.
All of your thoughts i have them, spiting them out sublime.
'Cos i am the god of power political to teh core.
'Cos governments roll their heads out .
the beast always wants  some more.
****************************************************************
chorus fig4
guit2: D5        Dmaj7/C"
guit1: chorus
-----------------2-----------------------------------2----------
-------------3--------------3---------------------2-----2---------
----------2--------------------2--0----2-------2----------2---0-
-------0-------------------------------------------------------
-------------------------------------------4-------------------
---------------------------------------------------------------
I love it,               he love it,.....
guit2: D7/C        C
guit1:
-------------2--------------------------3----------------------
----------1---------1----------------1-------------------------
--------2--------------2---------0----------------------------
---------------------------------------------------------------
-----3-----------------------3---------------------------------
---------------------------------------------------------------
we love your apathy.
guit2: D        Dmaj7/c"
guit1:
----------2------------------------------2---------------------
--------3---------3--------------------2--------2--------------
-----2---------------2---0----------2--------------2------------
---0--------------------------------------------------0---------
-------------------------------4-------------------------------
---------------------------------------------------------------
We crush your lame spirit,
guit2: D7/C       C
guit1:
-------2-------------------------------3------------------------
----1----------1--------------------1---------------------------
--2---------------2------------0-------------------------------
----------------------------------------------------------------
3-----------------------3------------------------------------------------
---------------------------------------------------------------
we love your apathy
---------------------------------------------------------------
-----------3---------------------------------------------------
-----------0---------------------------------------------------
-----------0-----------------------5---5---5---5-----5---------
-----------------------------------5---5---5---5-----5----------
-----------3-----------------------3---3---3---3-----3---------
loerly oh!
***************************************************************
rertake fig2 x7and then fig3 x1
during the second verse: 
I have the iunformation, that keeps you for knoving me
I abuse you as you me  you always vote me in.
The poorer you are the better, that gives me more control.
'Cos i am the brute that hates you   and the loving it to the
bone
***************************************************************teh
then the second chorus (same as the firt)
***************************************************************
just after the second chorus, play this:
-----------------------------------------------------------------
----------------------------------------------------------------
-------------------------------7------7---7-------------------
-5---5-------5--5--5--5--5-----7------7---7---3----------3-----
-5---5-------5--5--5--5--5-----5------5---5---3----------3-----
-3---3-------3--3--3--3--3--------------------1-------0--1---0-
play it 2X
Why don't you wait'till you bleed? 
Why don't you wait for the couse?
---------------------------------------------------------------
----------------------------------------------------------------
------------------------------------5--5--5--5--5--5--5--5------
-5--5--5--5--5--5--5--5-------------5--5--5--5--5--5--5--5-----
-5--5--5--5--5--5--5--5-------------3--3--3--3--3--3--3--3------
-3--3--3--3--3--3--3--3----------------------------------------
And i'll  and i'll  and i will watch.......
---------------------------------------------------------------
------------0--------------------------------------------------
--------2--------2-------------3-----------------2--------------
-----1--------------1--------3----------------2------0---------
---2------------------1-----------0----------------------------
----------------------------------------------------------------
 
----------------------------------------------------------------
----------------------------------------------------------------
-------------------------3-------3--3--3-----------------------
-4--4--4--4--2--2--2--2--3-------3--3--3-----------------------
-4--4--4--4--2--2--2--2--1-------1--1--1------------------------
-2--2--2--2--0--0--0--0--------------------0---2---4---0-------
i wait, i wait for you.
---------------------------------------------------------------
---------------------------------------------------------------
-------------------------------------------------3--3--3--3--2--
-------------------------------2--2--2--2--------3--3--3--3--2--
-------------------------------2--2--2--2--------1--1--1--1--0--
-------------------------------0--0--0--0-----------------------
 
--------------------------------------------------------------
--------------------------------------------------------------
---3--3--3----------------------------------3--3--3--2--------
---3--3--3--------------------2--2--2--2----3--3--3--2--------
---1--1--1--------------------2--2--2--2----1--1--1--0--------
-------------0--2--4--2--0----0--0--0--0----------------------
 
---------------------------------------------------------------
---------------------------------------------------------------
-----------------------------3-----3--3--3---------------------
--4--4--4--4--2--2--2--2-----3-----3--3--3---------------------
--4--4--4--4--2--2--2--2-----1-----1--1--1---------------------
--2--2--2--2--0--0--0--0--------------------0--2--4--0---------
 
--------------------------------------------------------------
---------------------------------------------------------------
-------------3--3-----6-----6---6---6--6----6--6--6--6--6--6--6
-2--2--2--2--3--3-----6-----6---6---6--6----6--6--6--6--6--6--6
-2--2--2--2--1--1-----4-----4---4---4--4----4--4--4--4--4--4--4
-0--0--0--0--------0-------------------------------------------
****************************************************************
replay the chorus
and finish with this:
guit2: D         Dmaj7/E"
guit1: with chorus effect
--------2-----------------------------2-------------------------
------3--------3-------------------2--------2------------------
----2-------------2---0---------2---------------2---0-----------
-0-------------------------------------------------------------
--------------------------4------------------------------------
---------------------------------------------------------------
i love it  he loves it
--------2------------------------------3-----------------------
------1---------1------------------1---------------------------
----2--------------2-----------0--------------------------------
---------------------------------------------------------------
-3---------------------3---------------------------------------
---------------------------------------------------------------
we love your apathy.
repeat ad lib to fade