Skunk Anansie-Yes It's Fucking Political

fig1
Distortion 
------------------------------------------------------------------------
------------------------------------------------------------------------
------------------------------------------------------------------------
---3---1---0------------------------------------------------------------
---------------3---2---1------------------------------------------------
--------------------------4---1-----------------------------------------
 
------------------------------------------------------------------------
------------------------------------------------------------------------
-------------------------------------------0----------------------------
---3---1---0-------------------------------1----------------------------
---------------3---2---1------------------------------------------------
--------------------------4---1-----------------------------------------
 
then repeat this once and after this, come the lirick with the bass
************************************************************************
So the fierce screwed up----your face-----------'cos your girlie liked 
And the wild onces like------ to hide-----------as the dirty priest
 
the taste----you're infected by the taste, -------Political
confides----in the love of baby whores,-----------Political
 
After "political" enter fig2
------------------------------------------------------------------------
------3---------------4-----------6-------------------------------------
------------------------------------------------------------------------
-3---------------3------3-----------------------------------------------
------------------------------------------------------------------------
------------------------------------------------------------------------

repeat it 3 times with the lirick...
So your dirty guilty braids----made your body smell----of mace----
Negativ are all your views-----so you can prop up your fake cool--

THIS IS TO END THE LIRICS
------------------------------------------------------------------------
---------6------------4-------------------------------------------------
---------------------------------5--------------------------------------
--3---------------3------3----------------------------------------------
------------------------------------------------------------------------
-------------------------------------------------------------------------

so debauched in your slick mink,-----Political
a pupet all the same-----------------Political
*************************************************************************
fig3: the chorus
-------------------------------------------------------------------------
------------------------------------------------------------------------
-------------------------------------------------------------------------
--8---8---8---8---8---8---8---8---8---8---8---8---7s6---6---------------
--8---8---8---8---8---8---8---8---8---8---8---8---7s6---6----------------
--6---6---6---6---6---6---6---6---6---6---6---6---5s4---4-----------------
 
YEs it's fucking political...
Everything's political
Yes it's fucking political
everything's political
Yes it's fucking political
Everything's political
 
------------------------
------------------------
------------------------                          
--7-----6---6----------- Repeat 5 times
--7-----6---6-----------
--5-----4---4----------
************************************************************************
then fig1
fig2 X3
************************************************************************
Second chorus (fig3)
***********************************************************************
solo fig4
-----------------------------------------------------------------------
------------------9--------9--11full+re+p9------9----------------------
-8--10--10--10-------10--------------------10------10------------------
------------------------------------------------------------------------
------------------------------------------------------------------------
------------------------------------------------------------------------
repeat 7X
and then...
------------------------------------------------------------------------
---------------9--------9--11fullre+p9-----9--11fullre+p9------9--------
--8--10--10--10----10------------------10------------------10----10-----
------------------------------------------------------------------------
------------------------------------------------------------------------
-------------------------------------------------------------------------
 
------------------------------------------------------------------------
----------------9-----9--11fullre+p9------9-----------------11----13----
--8--10--10--10---10------------------10----10--------10--13------------
-----------------------------------------------10---13------------------
--------------------------------------------------------------------------
------------------------------------------------------------------------
 
--11-11-11---------11-11-11--------11-11-11-----------------------------
----------13-13-13---------13-13-13--------13----11-13-11-13-11---------
-------------------------------------------------------------------------
------------------------------------------------------------------------
------------------------------------------------------------------------
------------------------------------------------------------------------
 
--11-11-11-13-13-13-11-13-13-13----16-16-16-13-13-13-16-16-16-13-13-----
------------------------------------------------------------------------
------------------------------------------------------------------------
------------------------------------------------------------------------
------------------------------------------------------------------------
------------------------------------------------------------------------
 
--18-18-18-16-16-20-20-20-18-18-18-16-16-16-13-13-13----13---13b--------
-----------------------------------------------------13------16b--------
------------------------------------------------------------------------
------------------------------------------------------------------------
------------------------------------------------------------------------
------------------------------------------------------------------------
*************************************************************************
retake the chorus...
************************************************************************
and then the final
------------------------------------------------------------------------
---------------------------------------------------------------------------
--------------------------------------------------------------4---------
-4--4--4---3------------3--3--3---3--3--3---3--3----4--4--4---4---------
-4--4--4---3------------3--3--3---3--3--3---3--3----4--4--4---2---------
-2--2--2---1------------1--1--1---1--1--1---1--1----2--2--2-------------
 
------------------------------------------------------------------------
------------------------------------------------------------------------
-4--4--4---4--4--4---4--4-----------------------------------------------
-4--4--4---4--4--4---4--4---4--4--4---3---------------------------------
-2--2--2---2--2--2---2--2---4--4--4---3---------------------------------
----------------------------2--2--2---1--------------------------------
 
-----------------------------------------------------------------------------
------------------------------------------------------------------------
------------------------------------------------------------------------
----3--3--3---3--3--3---3--3----4--4--4----2----------------------------
----3--3--3---3--3--3---3--3----4--4--4----2----------------------------
----1--1--1---1--1--1---1--1----2--2--2----0----------------------------
 
-------------------------------------------------------------------------
------------------------------------------------------------------------
------------------------------------------------------------------------
-2---2--2--2---2--2--2---2--2--2---2--2--2---2--2----4--4--4---3--------
-2---2--2--2---2--2--2---2--2--2---2--2--2---2--2----4--4--4---3--------
-0---0--0--0---0--0--0---0--0--0---0--0--0---0--0----2--2--2---1--------
 
you play it 3X