Soundgarden-Black Hole Sun

Dropped D tuning down half a step

Intro (gtr 1)
Eb|----------------------------|-----------------------------|------------------------|
Bb|----------------------------|-----------------------------|------------------------|
Gb|-------5--------------5-----|-------5--------------4------|-------1--------------2-|
Db|-----5----5---------5-------|-----3----3---------2--------|-----1----1---------0---|
Ab|---5--------5-----5---------|---3--------3-----2----------|---1--------1-----3-----|
Db|-5------------5-8-----------|-3------------0-2----------0-|-1------------1-0-------|
(gtr 2)
Eb|----------------------------|-----------------------------|------------------------|
Bb|----------------------------|-----------------------------|------------------------|
Gb|----------------15/19---21/-|--15/-14/12-----12/----------|-15/--------16/-19------|
Db|----------------------------|-----------------------------|------------------------|
Ab|----------------------------|-----------------------------|------------------------|
Db|----------------------------|-----------------------------|------------------------|

Verse
   G                   Gm               F                     Em
---------12------------------10-----|---------13--------------------12-----|
------12-----12----12-----11--------|------13-----13----13-------12--------|
---12-----------12-----12-----------|---10-----------10----10/12-----------|
------------------------------------|--------------------------------------|
------------------------------------|--------------------------------------|
------------------------------------|--------------------------------------|

   Eb                  Gsus2                 G           F           G#                     x2
---------11------------------10-----------|--------12----------10----------11------|
------11-----11----11-----10-----10----10-|-----12----------12----------13---------|
---12-----------12-----12-----------12----|--12-------12-10-------10-13------------|
------------------------------------------|----------------------------------------|
------------------------------------------|----------------------------------------| 
------------------------------------------|----------------------------------------|

Chorus 2
  Eb             D                 G       F       Bb
--------------------------------|---------------------------------|
--------------------------------|------------------------3--------|
--------1--------------2--------|----------------------3----3-----|
------1----1---------0----0-----|------5-------5-----3--------3---|
----1--------1-----3--------3---|----5-------5-----1------------1-|
--1------------1-0------------0-|--5-----5-3-----3----------------|
                                                     
  Eb             D                 C                 D                                     
--------------------------------|-----------------|-------------------|
--------------------------------|--5---5h6h5------|--7----------------|
--------1--------------2--------|--5-----------5--|--7----------------|
------1----1---------0----0-----|--5---------5----|--7----------------|
----1--------1-----3--------3---|--3--------------|--5----------------|
--1------------1-0------------0-|-----------------|-------------------|

Verse

Chorus
  Eb             D                 G       F       Bb
--------------------------------|---------------------------------|
--------------------------------|------------------------3--------|
--------1--------------2--------|----------------------3----3-----|
------1----1---------0----0-----|------5-------5-----3--------3---|
----1--------1-----3--------3---|----5-------5-----1------------1-|
--1------------1-0------------0-|--5-----5-3-----3----------------|
                                                     
  Eb             D                 C               Bb              
--------------------------------|---------------------------------|
--------------------------------|--5---5h6h5-------------3--------|
--------1--------------2--------|--5---------5---5-----3----3---3-|
------1----1---------0----0-----|--5-----------5-----3--------3---|
----1--------1-----3--------3---|--3---------------1--------------|
--1------------1-0------------0-|---------------------------------|
                                             
  Eb             D                 G       F       Bb                      
--------------------------------|---------------------------------|
--------------------------------|------------------------3--------|
--------1--------------2--------|----------------------3----3-----|
------1----1---------0----0-----|------5-------5-----3--------3---|
----1--------1-----3--------3---|----5-------5-----1------------1-|
--1------------1-0------------0-|--5-----5-3-----3----------------|

                                               play 4 times (8 times in final chorus)
  Eb             D                 C              Bb              D  
--------------------------------||--------------------------------------------------||
--------------------------------||--5---5h6h5------3---3h4h3-------7---7h8h7--------||
--------1--------------2--------||.-5---------5----3---------3---3-7---------7---7-.||
------1----1---------0----0-----||.-5-----------5--3-----------3---7-----------7---.||
----1--------1-----3--------3---||--3--------------1---------------5----------------||
--1------------1-0------------0-||--------------------------------------------------||

                     Play 6 times   F G
||---------------------3---3-3--||---------------------|
||---------------------3---3-3--||---------------------|
||.--------------------4---4-4-.||---------------------|
||.--------------------3---3-3-.||--3-5-5--------------|
||--3-2--0--3----------3---3-3--||--3-5-5--------------|
||------------5-4--3---3---3-3--||--3-5-5--------------|

Verse (first 2 bars)

Chorus (play chorus 2)

End with:                         F G
----------------------3---3-3--|---------------------|
----------------------3---3-3--|---------------------|
----------------------4---4-4--|---------------------|
----------------------3---3-3--|---------------------|
--3-2--0-2/3----------3---3-3--|--3/5-5--------------|
-------------5-4--3---3---3-3--|--3-5-5--------------|