Soundgarden-Pretty Noose

Tune guitars to: CGCGGe

Intro
G1 (Kim)    w/wah     ~~~           slow bend
e--------------------------------------------|
G--------------------------------------------|
G-----0--3^4---------------0--3^4-------5^7--|  x2
C--0----------5-4------------------4-5-------|
G------------------3-3/5---------------------|
C--------------------------------------------|

Verse
G1&2 w/ heavy dist.                      slow bend
e--7--7-7--9--10--10-10-\3--3-3--4--5--5-------------|
G--7--7-7--9--10--10-10-\3--3-3--4--5--5-7------7p0--|
G--7--7-7--9--10--10-10-\3--3-3--4--5--5-6^7----7p0--|<--hold bend
C--7--7-7--9--10--10-10-\3--3-3--4--5--5-------------|   and pull off
G--7--7-7--9--10--10-10-\3--3-3--4--5--5-------------|   to 0
C--7--7-7--9--10--10-10-\3--3-3--4--5--5-------------|

Bridge
G1&2
e-5-6-7-10-9-7--7-7--X-X-3--3-3--X-X-5--5-5--X-X-8--8-8-X-X--|
G-5-6-7-10-9-7--7-7--X-X-3--3-3--X-X-5--5-5--X-X-8--8-8-X-X--|
G-5-6-7-10-9-7--7-7--X-X-3--3-3--X-X-5--5-5--X-X-8--8-8-X-X--|
C-5-6-7-10-9-7--7-7--X-X-3--3-3--X-X-5--5-5--X-X-8--8-8-X-X--|
G-5-6-7-10-9-7--7-7--X-X-3--3-3--X-X-5--5-5--X-X-8--8-8-X-X--|
C-5-6-7-10-9-7--7-7--X-X-3--3-3--X-X-5--5-5--X-X-8--8-8-X-X--|
            Comin round silver chain pretty noose is pretty pain and I

Chorus
G1&2                                  
e--3-3-3-3-3-3-3-3-8-8-8-8-8-8-8-8-11--------|  Strum both repeatedly
G--3-3-3-3-3-3-3-3-8-8-8-8-8-8-8-8-11-13-----|<-while gradually bending
G--3-3-3-3-3-3-3-3-8-8-8-8-8-8-8-8-11-12^14--|<-3rd string upward...
C--3-3-3-3-3-3-3-3-8-8-8-8-8-8-8-8-11--------|
G--3-3-3-3-3-3-3-3-8-8-8-8-8-8-8-8-11--------|
C--3-3-3-3-3-3-3-3-8-8-8-8-8-8-8-8-11--------|

Fill 1
G1&2
e--7--7-7--X-X-3--3-3--X-X-0--|
G--7--7-7--X-X-3--3-3--X-X-0--|
G--7--7-7--X-X-3--3-3--X-X-0--|
C--7--7-7--X-X-3--3-3--X-X-0--|
G--7--7-7--X-X-3--3-3--X-X-0--|
C--7--7-7--X-X-3--3-3--X-X-0--|

G1 (Kim) play intro riff

Verse

Chorus

Solo Backing
G2 (Chris)
e--7--7-7--X-X-3--3-3--X-X-5--5-5--X-X-5--5-5--X-X--|
G--7--7-7--X-X-3--3-3--X-X-5--5-5--X-X-5--5-5--X-X--|
G--7--7-7--X-X-3--3-3--X-X-5--5-5--X-X-5--5-5--X-X--|
C--7--7-7--X-X-3--3-3--X-X-5--5-5--X-X-5--5-5--X-X--|
G--7--7-7--X-X-3--3-3--X-X-5--5-5--X-X-5--5-5--X-X--|
C--7--7-7--X-X-3--3-3--X-X-5--5-5--X-X-5--5-5--X-X--|

e--0--0-0--2--3--3-3--X-X-5--5-5--X-X-5--5-5--X-X--|
G--0--0-0--2--3--3-3--X-X-5--5-5--X-X-5--5-5--X-X--|
G--0--0-0--2--3--3-3--X-X-5--5-5--X-X-5--5-5--X-X--|
C--0--0-0--2--3--3-3--X-X-5--5-5--X-X-5--5-5--X-X--|
G--0--0-0--2--3--3-3--X-X-5--5-5--X-X-5--5-5--X-X--|
C--0--0-0--2--3--3-3--X-X-5--5-5--X-X-5--5-5--X-X--|

e--7--7-7--X-X-3--3-3--X-X-5--5-5--X-X-5--5-5--X-X--|
G--7--7-7--X-X-3--3-3--X-X-5--5-5--X-X-5--5-5--X-X--|
G--7--7-7--X-X-3--3-3--X-X-5--5-5--X-X-5--5-5--X-X--|
C--7--7-7--X-X-3--3-3--X-X-5--5-5--X-X-5--5-5--X-X--|
G--7--7-7--X-X-3--3-3--X-X-5--5-5--X-X-5--5-5--X-X--|
C--7--7-7--X-X-3--3-3--X-X-5--5-5--X-X-5--5-5--X-X--|

e--0--0-0--2--3--3-3--X-X-5--5-5--X-X-5-6-7-10-9-7--|
G--0--0-0--2--3--3-3--X-X-5--5-5--X-X-5-6-7-10-9-7--|
G--0--0-0--2--3--3-3--X-X-5--5-5--X-X-5-6-7-10-9-7--|
C--0--0-0--2--3--3-3--X-X-5--5-5--X-X-5-6-7-10-9-7--|
G--0--0-0--2--3--3-3--X-X-5--5-5--X-X-5-6-7-10-9-7--|
C--0--0-0--2--3--3-3--X-X-5--5-5--X-X-5-6-7-10-9-7--|

2nd Bridge
G1&2
e-5-6-7-10-9-7--7-7--X-X-3--3-3--X-X-5--5-5--X-X-8--8-8-X-X--|
G-5-6-7-10-9-7--7-7--X-X-3--3-3--X-X-5--5-5--X-X-8--8-8-X-X--|
G-5-6-7-10-9-7--7-7--X-X-3--3-3--X-X-5--5-5--X-X-8--8-8-X-X--|
C-5-6-7-10-9-7--7-7--X-X-3--3-3--X-X-5--5-5--X-X-8--8-8-X-X--|
G-5-6-7-10-9-7--7-7--X-X-3--3-3--X-X-5--5-5--X-X-8--8-8-X-X--|
C-5-6-7-10-9-7--7-7--X-X-3--3-3--X-X-5--5-5--X-X-8--8-8-X-X--|
             Comin round dirty face  pretty noose is pretty hey and

G1&2                                  
e--5-7-7-7-10-9--5--|
G--5-7-7-7-10-9--5--|
G--5-7-7-7-10-9--5--|        x2
C--5-7-7-7-10-9--5--|
G--5-7-7-7-10-9--5--|
C--5-7-7-7-10-9--5--|
   I don't care what you've got...

G1&2                                  
e--5-7-7-7-10-9--5----5-7-7-7-10-10-9--7--|
G--5-7-7-7-10-9--5----5-7-7-7-10-10-9--7--|
G--5-7-7-7-10-9--5----5-7-7-7-10-10-9--7--|
C--5-7-7-7-10-9--5----5-7-7-7-10-10-9--7--|
G--5-7-7-7-10-9--5----5-7-7-7-10-10-9--7--|
C--5-7-7-7-10-9--5----5-7-7-7-10-10-9--7--|
   I don't want anything...             and I
   
Chorus
G1&2                                  
e--3-3-3-3-3-3-3-3-8-8-8-8-8-8-8-8-11--------|
G--3-3-3-3-3-3-3-3-8-8-8-8-8-8-8-8-11-13-----|
G--3-3-3-3-3-3-3-3-8-8-8-8-8-8-8-8-11-12^14--|
C--3-3-3-3-3-3-3-3-8-8-8-8-8-8-8-8-11--------|
G--3-3-3-3-3-3-3-3-8-8-8-8-8-8-8-8-11--------|
C--3-3-3-3-3-3-3-3-8-8-8-8-8-8-8-8-11--------|

Outro w/chorus

G1&2
e-5-6-7-10-9-7--|
G-5-6-7-10-9-7--|   Do a few 
G-5-6-7-10-9-7--|   pick scrapes
C-5-6-7-10-9-7--|   and ya got it...
G-5-6-7-10-9-7--|
C-5-6-7-10-9-7--|
            Yeah...