Stereophonics - Dakota

Intro part 1:
Guitar 1 (w/ring modulation)

e|--------------------------------------------------------------------|
B|--------------------------------------------------------------------|
G|--------------------------------------------------------------------|
D|-9-9-9-9-9-9-9-9--6-6-6-6-6-6-6-6--2-2-2-2-2-2-2-2--9-9-9-9-9-9-9-9-|
A|--------------------------------------------------------------------|
E|--------------------------------------------------------------------|

Intro part 2:

Guitar 1 - fig 1
e|--------------------------------------------------------------------|
B|----12----12----12----12----12----14----14----14----14----14----14--|
G|-13----13----13----13----13----13----13----13----13----13----13-----|
D|--------------------------------------------------------------------|
A|--------------------------------------------------------------------|
E|--------------------------------------------------------------------|

e|--------------------------------------------------------------------|
B|-------------------------------------12----12----12----12----12-----|
G|----13----13----13----13----13----13----13----13----13----13----13--|
D|-14----14----14----14----14----14-----------------------------------|
A|--------------------------------------------------------------------|
E|--------------------------------------------------------------------|

Guitar 2 (w/delay) - fig 2
e|-----12--11------------------------------------|
B|-----------------12---------12--------12-------|
G|--9-----------9----------9---------9-----------|
D|-----------------------------------------------|
A|-----------------------------------------------|
E|-----------------------------------------------|

Verse 1 - Gtr 1 w/fig 1
Thinking back, thinking of you
Summer time think it was June 
Yeah I think it was June
Laying back head on the grass
                         *
Chewing gum, having some laughs
Yeah having some laughs

Guitar 2 - fade in at *
e|--------------------------|--------------------------|
B|--9--9--9--9--9--9--9--9--|--9--9--9--9--9--9--9--9--|
G|--------------------------|--------------------------|
D|--------------------------|--------------------------|
A|--------------------------|--------------------------|
E|--------------------------|--------------------------|

Chorus
A
You made me feel like the one,
                          E
You made me feel like the one, 
The one 

Guitar 2 (w/delay)
e|--12--11-----------12--11---------------------------------------|
B|----------12--9------------12--9----9b10r9b10r9b10r9b10r9b10r9--|
G|----------------------------------------------------------------|
D|----------------------------------------------------------------|
A|----------------------------------------------------------------|
E|----------------------------------------------------------------|

Verse 2 - Gtr 1 w/fig 1, Gtr 2 w/fig 2
Drinking back drinking for two 
Drinking with you
When drinking was new
*
Sleeping in the back of my car 
              #
We never went far
We wouldn't need to go far 

Guitar 3 - in at *
e|---------------------------------------------------------------|
B|---------------------------------------------------------------|
G|--13-13b14r13---13-13b14r13--13-13b14r13--13--13/16b18r16------|
D|---------------------------------------------------------------|
A|---------------------------------------------------------------|
E|---------------------------------------------------------------|

Guitar 4 - fade in at #
e|--------------------------|--------------------------|
B|--9--9--9--9--9--9--9--9--|--9--9--9--9--9--9--9--9--|
G|--------------------------|--------------------------|
D|--------------------------|--------------------------|
A|--------------------------|--------------------------|
E|--------------------------|--------------------------|

Chorus

Bridge
E                  B            A
I don't know where we are going now     x2

Guitar 2 
   E                 B                  A
e|--------------------------------------------------------------|
B|-------------------------------------(w/wah)------------------|
G|--9-9-9-9-9-9-9-9--11-11-11-11-11----------9-11---------9-11--|
D|--x-x-x-x-x-x-x-x--x--x--x--x--x------9-11---------9-11-------|
A|--7-7-7-7-7-7-7-7--9--9--9--9--9------------------------------|
E|--------------------------------------------------------------|

Verse 3
Wake up, cold coffee and juice, 
Remembering you, what happened to you.
*
Gtr 2 w/fig 2
I wonder if we'll meet again, 
                          #
And talk about life since then, 
And talk about why did it end 

Guitar 3 - in at *
e|------------------------------------------------|
B|------------------------------------------------|
G|--13-13b14r13---13-16b18r16--13-13b14r13--13----|
D|------------------------------------------------|
A|------------------------------------------------|
E|------------------------------------------------|

Guitar 4 - fade in at #
e|--------------------------|--------------------------|
B|--9--9--9--9--9--9--9--9--|--9--9--9--9--9--9--9--9--|
G|--------------------------|--------------------------|
D|--------------------------|--------------------------|
A|--------------------------|--------------------------|
E|--------------------------|--------------------------|

Chorus

Bridge

Outro part 1
                     E
So take a look at me now
                     B
So take a look at me now
                     Gtr 2 w/fig 3
                     A
So take a look at me now
So take a look at me now

Guitar 2 - fig 3
e|---------------------------------------------------------------|
B|---------------------------------------------------------------|
G|-------9-11------9-11------9-11------9-11------9-11------9-11--|
D|--9-11------9-11------9-11------9-11------9-11------9-11-------|
A|---------------------------------------------------------------|
E|---------------------------------------------------------------|

Outro part 2 - Gtr 2 w/fig 3
                     E
So take a look at me now
                     B
So take a look at me now
                     A
So take a look at me now
So take a look at me now

Guitar 1
e|-----------------------------------------------------------------|
B|-----------------------------------------------------------------|
G|-----------------------------------------------------------------|
D|--9-9-9-9-9-9-9-9-9-9-9-9-9-13-13-13-13-13-13-14-14-14-14-14-14--|
A|-----------------------------------------------------------------|
E|-----------------------------------------------------------------|