Stereophonics - Just Looking

Chords Used:
G	320033
Cadd9	032033
Am7	002103
F	132211
C	032010
D*	054030
Em7   022033

Verse riff 1	
|-------------------------------------|-------------------------------------|
|------3-----1-----0------------------|------3-----1-----0------------------|
|---------0-----0-----0--0h2p0-----0--|---------0-----0-----0--0h2p0-----0--|
|-------------------------------0-----|-------------------------------0-----|
|-------------------------------------|-------------------------------------|
|---3---------------------------------|---3---------------------------------|

Verse riff 2
|-------------------------------------|--------------------------------------|
|------3-----1-----0------------------|------3-----1-----0-------------------|
|---------0-----0-----0--0h2p0-----0--|---------0-----0-----0--0h2p0-----0---|
|-------------------------------0-----|-------------------------------0------|
|---3---------------------------------|---3----------------------------------|
|-------------------------------------|--------------------------------------|

Bridge Riff 1:
		Am7
e----------------------------
b---1-0-1-0-1---1-0-1-0-1--
g-----------------------------
d-----------------------------
a-0------------0--------------
e------------------------------

Bridge Riff 2:
   F           F
e-----------------------------
a--1-0-1-0-1---1-0-1-0-1-
g----------------------------
d----------------------------
a--------------------------
e-1------------1------------

Intro:
Verse Riff 1
Verse Riff 2

Verse 1:
	Verse Riff 1
There's things i want
 	Verse Riff 2
There's things i think i want
	Verse Riff 1
There's things i'll have
	Verse Riff 2
There's things i wanna have

Bridge 1:
	Bridge Riff 1
Do I want the dreams?
	Bridge Riff 2
The ones we're forced to see

Verse 2:
	Verse Riff 1
Do i want the perfect wife?
	Verse Riff 2
But perfect ain't quite right 
	Verse Riff 1
Shopping everyday
	Verse Riff 2
Take it back the next break

Bridge 2:
	Bridge Riff 1
You more you fly
	Bridge Riff 2
The more you risk your life

Chrous:
             G	    Cadd9
And I'm just looking
             G	    Cadd9				
I'm not buying
             G	    Cadd9				
I'm just looking
             G	    Cadd9				
Keeps me smiling

Verse 3:
	Verse Riff 1
How a sour it's seems
	Verse Riff 2
Another could've been
	Verse Riff 1
You drenched my heads
	Verse Riff 2
And said what i said

Bridge 3:
	Bridge Riff 1
You said that life is what you make of it
	Bridge Riff 2
But most of us just fade

Chrous:
             G	    Cadd9				
And I'm just looking
             G	    Cadd9				
I'm not buying
             G	    Cadd9				
I'm just looking
             G	    Cadd9				
Keeps me smiling

Solo / Break
C	D*
C	D*
C	D*
C	D*    Em  D/F#  G  A5

Chrous:
             G	    Cadd9				
And I'm just looking
             G	    Cadd9				
I'm not buying
             G	    Cadd9				
I'm just looking
             G	    Cadd9				
Keeps me trying

Chrous:
             G	    Cadd9				
And I'm just looking
             G	    Cadd9			
I'm not buying
             G	    Cadd9				
I'm just looking
             G	    Cadd9			
Keeps me smiling

Verse 4:
	Verse Riff 1
Theres' thing i want
	Verse Riff 2
There's thing i think i want
	Verse Riff 1
There's things i'll have
	Verse Riff 2
There's things i wanna have

Bridge 4:
	Bridge Riff 1
They say the more you fly
	Bridge Riff 2
The more you risk your life

Outro Chrous:	Gentler Strumming!!!
             G	    Cadd9
And I'm just looking
             G	    Cadd9
I'm not buying
             G	    Cadd9
I'm just looking
             G	    Cadd9
Keeps me smiling