More Life In A Tramps Vest-The Stereophonics

A5	x022xx
D/A	x0023x
Bm	x24432
A	x0222x
D/F#	2x023x
E	022100

Intro:
A (muted)

Verse 1:

A5                              D
I got camping eyes in the final hour. 
                                  Bm
Last minute shoppers picking cauliflower
                          D                       
They fuss they make you'd swear they were 
         A
buying a car

A                              D
Always moan, moan it's not too cheap. 
                                      Bm
Cheaper still, cheaper still down the street
                            D
I lose my rag and tell them take you're bag 
              A
and shop down there. 

A                                  D
Closing down, closing down another road
                           Bm
One way, system steals the show. Mac the 
              D
knife swigs a can and sings the day away

Chorus:
        A
There's more life, more life, more life, 
     D/F#   E
in a tramps vest
        A
There's more life, more life, more life, 
     D/F#   E
in a tramps vest

Verse 2: (same chords as verse 1)
Flower man sits down in the street. 
Surrounded by the stock he bought last week
Bring back the ladies wearing lipstick on their teeth. 
Make up, make up a crappy joke
Sit back, relax and have a smoke. 
Mac the knife swigs a can and sings the day away

Chorus:
        A
There's more life, more life, more life, 
     D/F#   E
in a tramps vest  (x4)

Solo: (over verse chords)

e--------------------------------------------|
B----5/10-10-----10-10-----10-10-----10-10---|
G------------9-9-------9-9-------9-9---------|
D--------------------------------------------|
A--------------------------------------------|
E--------------------------------------------|

e--------------------------------------------|
B--------------------------------------------|
G-9--9-6h7p6-6h7~~~-6-7-6-6h7p6-6h7~~~-6h7-6-|
D--------------------------------------------|
A--------------------------------------------|
E--------------------------------------------|

e--------------------------------------------|
B-------10---10---10---10--------------------|
G---7/9----9----9----9----9\2----------------|
D--------------------------------------------|
A--------------------------------------------|
E--------------------------------------------|

Verse 3: (no guitar)

I got camping eyes in the final hour. 
Last minute shoppers picking cauliflower
Mac the knife swigs a can and sings the day away

Chorus:

A                                             D/F#   E   
There's more life, more life, more life, in a tramps vest      (x4)

End on A

http://www.sparkystabs.co.uk