Stereophonics-Not Up To You

G5		3x0003
D/F#		2x023x
Em7		022033
Em		022000
A5		x02xxx
Am7		x02013
B5		x24xxx
Bm7		x24235
C		x32013
Dsus4/A	x00233
D		xx0232

Intro, verses and outro:
-----------------------
C5add9 (changes between x3x033 to x3x003)
G5 (changes between xx0033 and xx0003)

Verse 1:
-------
C5add9
  Salt grips the road
           G5
Awaits his lift again
C5add9
  Street orange glow
           G5
Shades the odds against
C5add9                       G5
  One more sip a shoe a miss
                         C5add9
A shaving nick one extra kiss
Who's to know whatever!

Chorus:
------
G5        D/F#
Not up to me
          Em7
Not up to you
G5        D/F#
Not up to me
          Em7
Not up to you

Verse #2:
--------
The swings don't swing
The parks been dead for years
How do you know
your last swing was the last for good
Hard book on freaks
Fresh summer peach
Creased magazine
Sugar chocolate treat
Who's to know whatever!

Chorus
------

Solo:
-----
     A5     Am7                                 B5      Bm7
E||---------3----------|----------------------|---------5----------|
B||---------1----------|----------------------|---------3----------|
G||---------0----------|----------------------|---------2----------|
D||---------2----------|----------------------|---------4----------|
A||--0------0----------|----0----2----3----0--|--2------2----------|
E||--------------------|----------------------|--------------------|
                         A5    Am7                            A5                                          
----------------------|---------3----------|----------------------|
----------------------|---------1----------|----------------------|
----------------------|---------0----------|----------------------|
----------------------|---------2----------|----------------------|
----0----2----3----0--|--0------0----------|----0----2----3----0--|
----------------------|--------------------|----------------------|
 B5     Bm7            C          Dsus4/A D                                                      
---------5----------|--0----0-----|--3----2------------|
---------3----------|--1----1--0--|--3----3------------|
---------2----------|--0----0--0--|--2----2------------|
---------4----------|--2----2--0--|--0----0------------|
--2------2----------|--3----3-----|--0-----------------|
--------------------|-------------|--------------------|

Verse #3:
--------
The street's so long
Where she lost her pocket purse
Kept the last picture
Of the man she committed first
Cracked windscreen rain
French murder play
Junk take away
Tired street parades
Who's to know whatever, ha whatever!

Chorus:
------
G5        D/F#
Not up to me 
          Em    D/F#
Not up to you
G5        D/F#
Not up to me 
          Em      C
Not up to you, ha whatever

Outro
-----
G5        D/F#
Not up to me 
          Em   
Not up to you
                      G5
Not up to anything we do
          D/F#
Not up to me
       Em       C
Not up toooooo
    G5       D/F#    Em
ha, you, ha, you, ha you,
         C     G5
It's not up to you
D/F#           Em
It's not up to you

C5add9           G5
                    It's not up to you         repeat to fade

http://www.sparkystabs.co.uk