Stereophonics-Pick A Part Thats New

  Asus2
  (A riff)
E||--------------------------------------|
B||--------------------------------------|
G||--------------------------------------|
D||--9h11-11p9-11--9h11--9h11-9h11-9-9-9-|
A||--0----0----0---0-----0----0----0-0-0-|
E||--------------------------------------|
   
  Dsus2
  (D riff)
E||---------------------------------------|
B||----------------------10--10--10-10-10-|
G||--9h11-11p9-11--9h11--11--11--11-11-11-|
D||--0----0----0---0-----0---0---0--0--0--|
A||---------------------------------------|
E||---------------------------------------|

  E                                               Not always played
  (E riff)                                           |--------|
E||-----------------------------------|------------------------|
B||-----------------------------------|------------------3--3--|
G||-----------------------------------|------------------2--2--|
D||----------------------------11--9--|------------------0--0--|
A||--9p11-11p9-11--9h11--9h11---------|--7---------------------|
E||--0----0----0---0-----0------------|--0---------------------|

  Fill 1
E||--------------|
B||-----------0--|
G||-----2--------|
D||--------0-----|
A||--4-----------|
E||--------------|

Intro
A riff D riff A riff D riff A riff D riff E riff

Asus2                  Asus2
I've never been here before,
                     Dsus2
Didn't know where to go,
                Dsus2  Fill 1
Never met you before.

Asus2                   Asus2
I've never been to your home,
                   Dsus2
That smells not unknown,
                  E riff
Footsteps made of stone.

                E riff
Walking feels familiar.

(During chorus, elec guitar plays riff while acoustic strums apropriate chord)

A riff             D riff
You can do all the things
                 A riff 
that you like to do,
                D riff
All around underground,
                   A riff
Pick a part that's new,
                   D riff
You can do all the things
                 A riff 
that you like to do,
                  D riff
All around upside down,
                  E riff
Pick a part thats new.

Asus2                    Asus2
People drinking on their own,
                    Dsus2
Push buttons on the phone,
                  Dsus2  Fill 1
Was I here once before.

Asus2                   Asus2
Is that my voice on the phone,
                      Dsus2
That last drink on my own,
                    E riff
Did I ever leave at all.

             E riff
Confusions familiar.

A riff             D riff
You can do all the things
                 A riff 
that you like to do,
                D riff
All around underground,
                   A riff
Pick a part that's new,
                   D riff
You can do all the things
                 A riff 
that you like to do,
                  D riff
All around upside down,
                  E riff
Pick a part thats new.

Solo
    A5        __                     __
    |     |`  | |  |       |     |`  | |  |
    /.    /   / /  /       /.    /   / /  /      Dm
E||---------------------|---------------------|--7--7--7--7----5--5----|
B||---------------------|---------------------|--6--6--6--6----6--6----|
G||*--6/-----7----------|--7/9\------7--------|--7--7--7--7----7--7----|
D||*--------------------|---------------------|------------------------|
A||---------------------|---------------------|------------------------|
E||---------------------|---------------------|------------------------|

--7--7--7--7----5--5-----||
--6--6--6--6----6--6-----||
--7--7--7--7----7--7----*||
------------------------*||
-------------------------||
-------------------------||

A riff             D riff
You can do all the things
                 A riff 
that you like to do,
                D riff
All around underground,
                   A riff
Pick a part that's new,
                   D riff
You can do all the things
                 A riff 
that you like to do,
                  D riff
All around upside down,
                A riff   
Anything that's new.
                   D riff
You can do all the things
                 A riff 
that you like to do,
                D riff
All around underground,
                   A riff
Pick a part that's new,
                   D riff
You can do all the things
                 A riff 
that you like to do,
                  D riff
All around upside down,
                  E riff
Pick a part thats new.
 
                 E riff
So what's new to you?
              E riff
What's new to you?
              E riff   D A
What's new to you?