Traffic-Stereophonics

C		x32010
Am7		x02013
Fsus2/C	x3301x
Am		x02210
F/C		x3321x
F		13321x
Dm/A		x00231
G5		3x003x


Intro:
     C                          Am7 
E||-------------3------------|-------------3------------|
B||--1----1h3p1-1-----1--1-1-|--1----1h3p1-1-----1--1-1-|
G||--0----0-----0-----0--0-0-|--0----0-----0-----0--0-0-|
D||--2----2-----------2--2-0-|--2----2-----------2--0-0-|
A||--3----3-----------3------|--0-----------------------|
E||--------------------------|--------------------------|
  Fsus2/C                    C                                                 
--------------------------|-------------3---------|
--1----1-----1-----1---1--|-------1h3p1-1---------|
--0----0h2p0-0-----0h2-0--|-------0-----0---------|
--3----3-----3-----3------|--2----2---------------|
--3-----------------------|--3--------------------|
--------------------------|-----------------------|

                     C
We all face the same way
                   Am
Still it takes all day
                    F/C
I take a look to my left
                           C
Pick out the worst and the best
               C
She paints her lip
           Am
Greasy and thick
               F
Another mirror stare
                Dm/A  C
And she's going where?

Verse 2:
Another office affair
To kill an unborn scare
You talk dirty to a priest
It makes you human at least
But is she running away
To start a brand new day
Or she's going home
Why's she driving alone

Chorus:
   F/C    Dm/A  C 
Is anyone going anywhere?
F          Dm/A     C         Am7  Fsus2  C
Everyone's gotta be somewhere

Verse 3:
She got a body in the boot
Or just bags full of food           
Those are models legs
But are they womens are they mens
She shouts down the phone 
Missed a payment on the loan
She gotta be above the rest
Keeping up with the best

Chorus:
   F/C    Dm/A  C 
Is anyone going anywhere?
F          Dm/A     C         Am7  Fsus2  C
Everyone's gotta be somewhere

Solo
     G5                   Fsus2
E||----------------------------|-------------------------|
B||--3------3------3--3--------|----1---1-------------1--|
G||--0----0h2----0h2--0-----0--|----0h2-0----2--0--0--0--|
D||--0------0------0--0--0--3--|----3---3----3--2--0-----|
A||-------------------------3--|----------------------3--|
E||--3----------------------1--|-------------------------|
  G5                  Fsus2        F  Fsus2     F                                                      
---------------------------|---------------------------|
---------3----3---3-----1--|-------1----1-------1----1-|
--0----0h2----0h2-0--0--0--|-------0----0-------0----0-|
--0------0----0---0--0--3--|----3--2h3--3-------2h3--3-|
------------------------3--|----3---------3--3---------|
--3---------------------1--|----1---------1--1---------|
Fsus2   F    Fsus2               C                                                    
------------------------------|-------------------|
--------1----1----------------|-------------------|
--------0----0-------0--------|-------------------|
--------2h3--3-------2-3-2-0--|--2----------------|
--3--3---------3--3-----------|--3----------------|
--1--1---------1--1-----------|-------------------|

Verse 4:
Waits tables for a crook
Wrote a hard back book
You teach kids how to read
Or sell your body on the street
A nurse without a job
Another uptown snob
But have I got you all wrong
I blinked and you were gone

Chorus:
   F/C    Dm/A  C 
Is anyone going anywhere?
   F/C    Dm/A  C 
Is anyone going anywhere?
   F/C    Dm/A  C 
Is anyone going anywhere?
F          Dm/A(strum once)
Everyone's gotta be.....somewhere

Outro: Same as intro

http://www.sparkystabs.co.uk