Stiltskin-Inside

   [choir]                                               (fade in)         
|---------------------------------------------------------------------------|
|---------------------------------------------------------------------------|
|---------------------------------------------------------------------------|
|------------------------------------------------------------12-------------|
|---------------------------------------------------------------------------|
|---------------------------------------------------------------------------|
 
  D                   A                 E                                    
|------------------|-----------------|-----------------|--------------------|
|------------------|-----------------|-----------------|--------------------|
|------------------|-----------------|--9------9-----x-|--9--9--9--9--------|
|----4--5--7-------|-----------------|--9------9-----x-|--9--9--9--9--------|
|-5----------------|-----4--5--7-----|--7------7-----x-|--7--7--7--7--------|
|------------------|--5--------------|-----------------|--------------------|
                                                                               
  D                   A                 E                                    
|------------------|-----------------|-----------------|--------------------|
|------------------|-----------------|-----------------|--------------------|
|------------------|-----------------|--9------9-----x-|--9--9--9--9--------|
|----4--5--7-------|-----------------|--9------9-----x-|--9--9--9--9--------|
|-5----------------|-----4--5--7-----|--7------7-----x-|--7--7--7--7--------|
|------------------|--5--------------|-----------------|--------------------|
 
  E                   C                 A                 C      D
|-(guitar)---------|-----------------|-----------------|------------12------|
|-12---------------|-----------------|-----------------|---------12---------|
|------------------|-----------------|-----------------|--------------------|
|------------------|-----------------|-----------------|--------------------|
|-(bass)-----------|--3--3---3---3---|-----------------|--3--3---5--5-------|
|-0--0--0---0------|-----------------|--5---5--5---5---|--------------------|
 
  E                   C                 A                 C      D
|------------------|-----------------|-----------------|--------------------|
|-12---------------|-----------------|-----------------|--------------------|
|------------------|-----------------|-----------------|--------------------|
|------------------|-----------------|-----------------|--------------------|
|------------------|--3--3---3---3---|-----------------|--3--3---5--5-------|
|-0--0--0---0------|-----------------|--5---5--5---5---|--------------------|
  Swing low in the darkless hour     you turn and cower see it turned to dust
 
  E                   C                 A                 C      D
|------------------|-----------------|-----------------|--------------------|
|-12---------------|-----------------|-----------------|--------------------|
|------------------|-----------------|-----------------|--------------------|
|------------------|-----------------|-----------------|--------------------|
|------------------|--3--3---3---3---|-----------------|--3--3---5--5-------|
|-0--0--0---0------|-----------------|--5---5--5---5---|--------------------|
     move on the stoned dark night   we take  to flight snowfall turns to rust
 
 
  E                   C                 A                 C      D
|------------------|-----------------|-----------------|--------------------|
|f12---------------|f12--------------|-----------------|--------------------|
|------------------|-----------------|-----------------|--------------------|
|------------------|-----------------|-----------------|--------------------|
|------------------|--3--3---3---3---|-----------------|--3--3---5--5-------|
|-0--0--0---0------|-----------------|--5---5--5---5---|--------------------|
    seeing in the fusion light    like a nursing rhyme  fat man starts to fall
 
  E                   C                 A                 C      D
|------------------|-----------------|-----------------|--------------------|
|------------------|-----------------|-----------------|--------------------|
|------------------|-----------------|-----------------|--------------------|
|------------------|-----------------|-----------------|--------------------|
|------------------|--3--3---3---3---|-----------------|--3--3---5--5-------|
|-0--0--0---0------|-----------------|--5---5--5---5---|--------------------|
  Here in a           hostile place    I hear your face         start to call
 
[bridge]
  E                   G                 A                 C                  
|------------------|-----------------|-----------------|--------------------|
|------------------|-----------------|-----------------|--------------------|
|-9-9--x--x--x-----|-----------------|-----------------|--------------------|
|-9-9--x--x--x-----|--5-5--x--x--x---|--7--7-------(7)-|-10-----------------|
|-7-7--x--x--x-----|--5-5--x--x--x---|--7--7-------(7)-|-10-----------------|
|------------------|--3-3--x--x--x---|--5--5-------(5)-|--8-----------------|
       And if I    think that I've been loosing my       way
                                                                              
  E                   G                 A                 C                  
|------------------|-----------------|-----------------|--------------------|
|------------------|-----------------|-----------------|--------------------|
|-9-9--x--x--x-----|-----------------|-----------------|--------------------|
|-9-9--x--x--x-----|--5-5--x--x--x---|--7--7-------(7)-|-10-----------------|
|-7-7--x--x--x-----|--5-5--x--x--x---|--7--7-------(7)-|-10-----------------|
|------------------|--3-3--x--x--x---|--5--5-------(5)-|--8-----------------|
       that's        because I'm      slightly   blid    -ed
 
  E                   G                 A                 C                  
|------------------|-----------------|-----------------|--------------------|
|------------------|-----------------|-----------------|--------------------|
|-9-9--x--x--x-----|-----------------|-----------------|--------------------|
|-9-9--x--x--x-----|--5-5--x--x--x---|--7--7-------(7)-|-10-----------------|
|-7-7--x--x--x-----|--5-5--x--x--x---|--7--7-------(7)-|-10-----------------|
|------------------|--3-3--x--x--x---|--5--5-------(5)-|--8-----------------|
       And if you    think that I don't make too much sense                                                                              
  E                   G                 A                 C                  
|------------------|-----------------|-----------------|--------------------|
|------------------|-----------------|-----------------|--------------------|
|-9-9--x--x--x-----|-----------------|-----------------|--------------------|
|-9-9--x--x--x-----|--5-5--x--x--x---|--7--7-------(7)-|-10-----------------|
|-7-7--x--x--x-----|--5-5--x--x--x---|--7--7-------(7)-|-10-----------------|
|------------------|--3-3--x--x--x---|--5--5-------(5)-|--8-----------------|
       that's        because I'm       broken     mind-  ed.
 
[Verse]
  D                   A                 E                                    
|------------------|-----------------|-----------------|--------------------|
|------------------|-----------------|-----------------|--------------------|
|------------------|-----------------|--9------9-----x-|--9--9--9--9--------|
|----4--5--7-------|-----------------|--9------9-----x-|--9--9--9--9--------|
|-5----------------|-----4--5--7-----|--7------7-----x-|--7--7--7--7--------|
|------------------|--5--------------|-----------------|--------------------|
                                              Do--   n't k--e--e--p  it 
 
  D                   A                 E                                    
|------------------|-----------------|-----------------|--------------------|
|------------------|-----------------|-----------------|--------------------|
|------------------|-----------------|--9------9-----x-|--9--9--9--9--------|
|----4--5--7-------|-----------------|--9------9-----x-|--9--9--9--9--------|
|-5----------------|-----4--5--7-----|--7------7-----x-|--7--7--7--7--------|
|------------------|--5--------------|-----------------|--------------------|
                                                          inside
 
  D                   A                 E                                    
|------------------|-----------------|-----------------|--------------------|
|------------------|-----------------|-----------------|--------------------|
|------------------|-----------------|--9------9-----x-|--9--9--9--9--------|
|----4--5--7-------|-----------------|--9------9-----x-|--9--9--9--9--------|
|-5----------------|-----4--5--7-----|--7------7-----x-|--7--7--7--7--------|
|------------------|--5--------------|-----------------|--------------------|
                                               if you believe it    
 
  D                   A                 E                                    
|------------------|-----------------|-----------------|--------------------|
|------------------|-----------------|-----------------|--------------------|
|------------------|-----------------|--9------9-----x-|--9--9--9--9--------|
|----4--5--7-------|-----------------|--9------9-----x-|--9--9--9--9--------|
|-5----------------|-----4--5--7-----|--7------7-----x-|--7--7--7--7--------|
|------------------|--5--------------|-----------------|--------------------|
           Don't keep it all inside                                                        
 
|------------------|-----------------|
|------------------|-----------------|
|------------------|-----------------|
|-(bass)-----------|-----------------|
|-7--7---7---7-----|--7--7---7---7---|
|------------------|-----------------|
 
  E                   C                 A                 C      D
|-12---------------|-----------------|-----------------|--------------------|
|----12------------|-----------------|-----------------|--------------------|
|------------------|-----------------|-----------------|--------------------|
|------------------|-----------------|-----------------|--------------------|
|------------------|--3--3---3---3---|-----------------|--3--3---5--5-------|
|-0--0--0---0------|-----------------|--5---5--5---5---|--------------------|
     Strong words  in a gange sky      I have to lie   shadows moving past
 
  E                   C                 A                 C      D
|------------------|-----------------|-----------------|--------------------|
|------------------|-----------------|-----------------|--------------------|
|------------------|-----------------|-----------------|--------------------|
|------------------|-----------------|-----------------|--------------------|
|------------------|--3--3---3---3---|-----------------|--3--3---5--5-------|
|-0--0--0---0------|-----------------|--5---5--5---5---|--------------------|
 ring out from the blue sports car   in the shooting yard looking to the task
 
 
  E (synth)           C (synth)         A                 C      D
|------------------|-----------------|-----------------|--------------------|
|------------------|-----------------|-----------------|--------------------|
|------------------|-----------------|-----------------|--------------------|
|------------------|-----------------|-----------------|--------------------|
|------------------|--3--3---3---3---|-----------------|--3--3---5--5-------|
|-0--0--0---0------|-----------------|--5---5--5---5---|--------------------|
   out of the black slate time we're moving line but never reach an end
 
  E (synth)           C (synth)         A (synth)         C      D 
|------------------|-----------------|-----------------|--------------------|
|------------------|-----------------|-----------------|--------------------|
|------------------|-----------------|-----------------|--------------------|
|------------------|-----------------|-----------------|--------------------|
|------------------|--3--3---3---3---|-----------------|--3--3---5--5-------|
|-0--0--0---0------|-----------------|--5---5--5---5---|--------------------|
  falling along straight town as the ice comes down     river starts to bend 
 
[bridge]
  E                   G                 A                 C                  
|------------------|-----------------|-----------------|--------------------|
|------------------|-----------------|-----------------|--------------------|
|-9-9--x--x--x-----|-----------------|-----------------|--------------------|
|-9-9--x--x--x-----|--5-5--x--x--x---|--7--7-------(7)-|-10-----------------|
|-7-7--x--x--x-----|--5-5--x--x--x---|--7--7-------(7)-|-10-----------------|
|------------------|--3-3--x--x--x---|--5--5-------(5)-|--8-----------------|
       And if you    think that I've been loosing my       way
                                                                              
  E                   G                 A                 C                  
|------------------|-----------------|-----------------|--------------------|
|------------------|-----------------|-----------------|--------------------|
|-9-9--x--x--x-----|-----------------|-----------------|--------------------|
|-9-9--x--x--x-----|--5-5--x--x--x---|--7--7-------(7)-|-10-----------------|
|-7-7--x--x--x-----|--5-5--x--x--x---|--7--7-------(7)-|-10-----------------|
|------------------|--3-3--x--x--x---|--5--5-------(5)-|--8-----------------|
       that's        because I'm am    slightly    blind-  ed.
 
  E                   G                 A                 C                  
|------------------|-----------------|-----------------|--------------------|
|------------------|-----------------|-----------------|--------------------|
|-9-9--x--x--x-----|-----------------|-----------------|--------------------|
|-9-9--x--x--x-----|--5-5--x--x--x---|--7--7-------(7)-|-10-----------------|
|-7-7--x--x--x-----|--5-5--x--x--x---|--7--7-------(7)-|-10-----------------|
|------------------|--3-3--x--x--x---|--5--5-------(5)-|--8-----------------|
       And if you    think that I don't make to much sense
                                                                              
  E                   G                 A                 C                  
|------------------|-----------------|-----------------|--------------------|
|------------------|-----------------|-----------------|--------------------|
|-9-9--x--x--x-----|-----------------|-----------------|--------------------|
|-9-9--x--x--x-----|--5-5--x--x--x---|--7--7-------(7)-|-10-----------------|
|-7-7--x--x--x-----|--5-5--x--x--x---|--7--7-------(7)-|-10-----------------|
|------------------|--3-3--x--x--x---|--5--5-------(5)-|--8-----------------|
       that's        because I'm       broken     mind-  ed.
 
[Verse]
  D                   A                 E                                    
|------------------|-----------------|-----------------|--------------------|
|------------------|-----------------|-----------------|--------------------|
|------------------|-----------------|--9------9-----x-|--9--9--9--9--------|
|----4--5--7-------|-----------------|--9------9-----x-|--9--9--9--9--------|
|-5----------------|-----4--5--7-----|--7------7-----x-|--7--7--7--7--------|
|------------------|--5--------------|-----------------|--------------------|
                                              Do--   n't k--e--e--p  it 
 
  D                   A                 E                                    
|------------------|-----------------|-----------------|--------------------|
|------------------|-----------------|-----------------|--------------------|
|------------------|-----------------|--9------9-----x-|--9--9--9--9--------|
|----4--5--7-------|-----------------|--9------9-----x-|--9--9--9--9--------|
|-5----------------|-----4--5--7-----|--7------7-----x-|--7--7--7--7--------|
|------------------|--5--------------|-----------------|--------------------|
                                                          inside
 
  D                   A                 E                                    
|------------------|-----------------|-----------------|--------------------|
|------------------|-----------------|-----------------|--------------------|
|------------------|-----------------|--9------9-----x-|--9--9--9--9--------|
|----4--5--7-------|-----------------|--9------9-----x-|--9--9--9--9--------|
|-5----------------|-----4--5--7-----|--7------7-----x-|--7--7--7--7--------|
|------------------|--5--------------|-----------------|--------------------|
                                               if you believe it    
 
  D                   A                 E                                    
|------------------|-----------------|-----------------|--------------------|
|------------------|-----------------|-----------------|--------------------|
|------------------|-----------------|--9------9-----x-|--9--9--9--9--------|
|----4--5--7-------|-----------------|--9------9-----x-|--9--9--9--9--------|
|-5----------------|-----4--5--7-----|--7------7-----x-|--7--7--7--7--------|
|------------------|--5--------------|-----------------|--------------------|
           Don't keep it all inside                       no no
 
[Solo]
  E                   C                 A                 C      D
|------------------|-----------------|-----------------|--------------------|
|------------------|-----------------|-----------------|--------------------|
|------------------|-----------------|-----------------|--------------------|
|------------------|--5--------------|--5--------------|--5------7----------|
|-7-------7---5----|--------7---5----|--------7---5----|--------------------|
|------------------|-----------------|-----------------|--------------------|
 
  E                   C                 A                 C      D
|------------------|-----------------|-----------------|--------------------|
|------------------|-----------------|-----------------|--------------------|
|------------------|-----------------|-----------------|--------------------|
|------------------|--5--------------|--5--------------|--5------7----------|
|-7-------7---5----|--------7---5----|--------7---5----|--------------------|
|------------------|-----------------|-----------------|--------------------|
 
  D                   A                 E                                    
|------------------|-----------------|-----------------|--------------------|
|------------------|-----------------|-----------------|--------------------|
|------------------|-----------------|--9------9-----x-|--9--9--9--9--------|
|----4--5--7-------|-----------------|--9------9-----x-|--9--9--9--9--------|
|-5----------------|-----4--5--7-----|--7------7-----x-|--7--7--7--7--------|
|------------------|--5--------------|-----------------|--------------------|
 
  D                   A                 E                                    
|------------------|-----------------|-----------------|--------------------|
|------------------|-----------------|-----------------|--------------------|
|------------------|-----------------|--9------9-----x-|--9--9--9--9--------|
|----4--5--7-------|-----------------|--9------9-----x-|--9--9--9--9--------|
|-5----------------|-----4--5--7-----|--7------7-----x-|--7--7--7--7--------|
|------------------|--5--------------|-----------------|--------------------|
 
 
|------------------|-----------------|-----------------|--------------------|
|------------------|-----------------|-----------------|--------------------|
|------------------|-----------------|-----------------|--------------------|
|--(bass)----------|-----------------|-----------------|--------------------|
|---------2--------|--------5--------|--------7--------|--------10----------|
|--0--0------0-----|--3--3-----3-----|--5--5-----5-----|--8--8------8-------|
                                                                               

[Verse]
  D                   A                 E                                    
|------------------|-----------------|-----------------|--------------------|
|------------------|-----------------|-----------------|--------------------|
|------------------|-----------------|--9------9-----x-|--9--9--9--9--------|
|----4--5--7-------|-----------------|--9------9-----x-|--9--9--9--9--------|
|-5----------------|-----4--5--7-----|--7------7-----x-|--7--7--7--7--------|
|------------------|--5--------------|-----------------|--------------------|
                                              Do--   n't k--e--e--p  it 
 
  D                   A                 E                                    
|------------------|-----------------|-----------------|--------------------|
|------------------|-----------------|-----------------|--------------------|
|------------------|-----------------|--9------9-----x-|--9--9--9--9--------|
|----4--5--7-------|-----------------|--9------9-----x-|--9--9--9--9--------|
|-5----------------|-----4--5--7-----|--7------7-----x-|--7--7--7--7--------|
|------------------|--5--------------|-----------------|--------------------|
                                                          inside
 
  D                   A                 E                                    
|------------------|-----------------|-----------------|--------------------|
|------------------|-----------------|-----------------|--------------------|
|------------------|-----------------|--9------9-----x-|--9--9--9--9--------|
|----4--5--7-------|-----------------|--9------9-----x-|--9--9--9--9--------|
|-5----------------|-----4--5--7-----|--7------7-----x-|--7--7--7--7--------|
|------------------|--5--------------|-----------------|--------------------|
                                               if you believe it    
 
  D                   A                 E                                    
|------------------|-----------------|-----------------|--------------------|
|------------------|-----------------|-----------------|--------------------|
|------------------|-----------------|--9------9-----x-|--9--9--9--9--------|
|----4--5--7-------|-----------------|--9------9-----x-|--9--9--9--9--------|
|-5----------------|-----4--5--7-----|--7------7-----x-|--7--7--7--7--------|
|------------------|--5--------------|-----------------|--------------------|
           Don't keep it all inside                                                        
 
  D                   A                 E                                    
|------------------|-----------------|-----------------|--------------------|
|------------------|-----------------|-----------------|--------------------|
|------------------|-----------------|--9------9-----x-|--9--9--9--9--------|
|----4--5--7-------|-----------------|--9------9-----x-|--9--9--9--9--------|
|-5----------------|-----4--5--7-----|--7------7-----x-|--7--7--7--7--------|
|------------------|--5--------------|-----------------|--------------------|
           Don't keep it all inside                                                        
 
  D                   A                 E                                    
|------------------|-----------------|-----------------|--------------------|
|------------------|-----------------|-----------------|--------------------|
|------------------|-----------------|--9------9-----x-|--9--9--9--9--------|
|----4--5--7-------|-----------------|--9------9-----x-|--9--9--9--9--------|
|-5----------------|-----4--5--7-----|--7------7-----x-|--7--7--7--7--------|
|------------------|--5--------------|-----------------|--------------------|
                                              Do--   n't k--e--e--p  it 
 
  D                   A                 E                                    
|------------------|-----------------|-----------------|--------------------|
|------------------|-----------------|-----------------|--------------------|
|------------------|-----------------|--9------9-----x-|--9--9--9--9--------|
|----4--5--7-------|-----------------|--9------9-----x-|--9--9--9--9--------|
|-5----------------|-----4--5--7-----|--7------7-----x-|--7--7--7--7--------|
|------------------|--5--------------|-----------------|--------------------|
                                                          inside
 
  D                   A                 E                                    
|------------------|-----------------|-----------------|--------------------|
|------------------|-----------------|-----------------|--------------------|
|------------------|-----------------|--9------9-----x-|--9--9--9--9--------|
|----4--5--7-------|-----------------|--9------9-----x-|--9--9--9--9--------|
|-5----------------|-----4--5--7-----|--7------7-----x-|--7--7--7--7--------|
|------------------|--5--------------|-----------------|--------------------|
                                               if you believe it    
 
  D                   A                 E                                    
|------------------|-----------------|-----------------|-------------------||
|------------------|-----------------|-----------------|-------------------||
|------------------|-----------------|--9------9-----x-|--9----------------||
|----4--5--7-------|-----------------|--9------9-----x-|--9----------------||
|-5----------------|-----4--5--7-----|--7------7-----x-|--7----------------||
|------------------|--5--------------|-----------------|-------------------||
           Don't keep it all inside                       No