Sum 41-Fat Lip

Dropped D tuning (DADGBe)

Intro (Gtr 1)
NC
e|------------------------|-------------------------|
B|------------------------|-------------------------|
G|------------------------|-------------------------|    x2
D|------------------------|-------------------------|
A|--------11----------9---|--------11----------9-7--|
D|-6-7-9-------6-7-9------|-6-7-9-------6-7-9-------|

Intro (Gtr 2 joins Gtr 1)
  D5 E5       D5 E5   A5   D5 E5       D5 E5   A5
e|------------------------|-------------------------|
B|------------------------|-------------------------|
G|------------------------|-------------------------|    x2
D|-0-2-2--2--2-0-2-2--7---|-0-2-2--2--2-0-2-2--7----|
A|-0-2-2--2--2-0-2-2--7---|-0-2-2--2--2-0-2-2--7----|
D|-0-2-2--2--2-0-2-2--7---|-0-2-2--2--2-0-2-2--7----|

Verse riff (Gtr 1 only)
   E5             B5        A5
e|------------------------|-------------------------|
B|------------------------|-------------------------|
G|------------------------|-------------------------|
D|------------------------|-------------------------|
A|-2-2-----7p6h7--9--9----|-7-7-----7p6h7-----------|
D|-2-2------------9--9----|-7-7------------7--6--4--|

Storming through the party like my name was El Nino
When I'm hanging out drinking in the back of an El Camino
As a kid, I was a skid and no one knew me by name
I trashed my own house party 'cos nobody came

Pre-chorus
   E5                           C#5           A5
e|----------------------------|----------------------------|
B|----------------------------|----------------------------|
G|----------------------------|-----6------6------2------2-|
D|-----2------2------2------2-|-6-6-6--6-6-6--2-2-2--2-2-2-|
A|-2-2-2--2-2-2--2-2-2--2-2-2-|-4-4-4--4-4-4--0-0-0--0-0-0-|
D|-2-2-2--2-2-2--2-2-2--2-2-2-|----------------------------|

I know I'm not the one you thought you knew back in high school
Never going, never showing up when we had to
Attention that we crave don't tell us to behave
I'm sick of always hearing act your age

Chorus (Both Gtr's)
    e5     B5     C#5                 G#5 A5       G#5 A5
e|----------------------------------|----------------------------|
B|----------------------------------|----------------------------|
G|--9--9-9--------------------------|----------------------------|
D|--9--9-9-9--9-9-11--11--11--11-11-|--6--7--7--7-7-6--7--7--7-7-|
A|--7--7-7-9--9-9-11--11--11--11-11-|--6--7--7--7-7-6--7--7--7-7-|
D|---------9--9-9-11--11--11--11-11-|--6--7--7--7-7-6--7--7--7-7-|

I don't want to waste my time
Become another casualty of society
I'll never fall in line
Become another victim of your conformity
And back down

Play intro (Both Gtr's)

Verse
NC
Because you don't
W/verse riff
Know us at all we laugh when old people fall
But what would you expect with a conscience so small
Heavy metal and mullets it's how we were raised
Maiden and Priest were the gods that we praised

Pre-chorus
'Cos we like having fun at other peoples expense and
Cutting people down is just a minor offence then
It's none of your concern, I guess I'll never learn
I'm sick of being told to wait my turn

Chorus

Bridge (Gtr 1)
   e5          e5/D#        C#m           A5
e|------------------------|------------------------|
B|------------------------|-------5----------------|
G|-------9-----------9----|------------------------|   x4
D|----9-----9-----9-----9-|----6-----6--------2----|
A|-7-----------6----------|-4--------------0-----0-|
D|------------------------|------------------------|

Don't count on me to let you know when
Don't count on me, I'll do it again

(Gtr 2 enters)
e|-0-----0-----2-----2----|-0-----0--------0-------|
B|----0-----0-----0-----0-|----0-----0h-2-----2--0-|
G|------------------------|------------------------|
D|------------------------|------------------------|
A|------------------------|------------------------|
D|------------------------|------------------------|

Don't count on me, it's the point you're missing
Don't count on me 'cos I'm not listening

Middle
w/intro x1
Well I'm a no good nick lower middle class brat
Back packed and I don't give a about nothing
You'll be standing on the corner talking all that kufuffin
But you don't make sense from all the gas you be huffing
Then if the egg don't stain you'll be ringing off the hook
You're on the hit list wanted in the telephone book
I like songs with distortion, to drink in proportion
The doctor said my mom should have had an abortion

Chorus

w/chorus
Waste my time with them
Casualty of society
Waste my time again
Victim of your conformity
And back down, down, down...

http://www.sparkystabs.co.uk