Alright                               
                               Supergrass
INTRO:  D

VERSE 1:
[D]We are young, we run green
[D]Keep our teeth, nice and clean
[Em]See our friends see the sights feel 
[D]alright

VERSE 2:
[D]We wake up, we go out
[D]Smoke a fag, put it out
[Em]See our friend, see the sights feel 
[D]alright

BRIDGE:
[F#m]Are we like you
[F]I can't be sure
[Em]Of the scene as she turns we are
[A7]Strange in our worlds

VERSE 3:
[D]We are young, We get by
[D]Can't go mad, ain't got time
[Em]Sleep around if we like but we're 
[D]alright

VERSE 4:
[D]Got some cash, got some wheels
[D]Took it out, cross the fields
[Em]Lost control, hit a wall we're 
[D]alright

BRIDGE:

VERSE 1:

SOLO:
            G                       Dm7
E||-------|------------------------|------------------------|
B||-------|------------------------|------------------------|
G||-------|------------------------|------3----------3--x-x-|
D||-------|------------------0--3--|------3--5--5-------x-x-|
A||-------|------------1h-3--------|------------------------|
E||-15\---|--3------3--------------|------------------------|
                                       
G                        F                          G                                       
-----------------------|--------------------------|--------------------------|
-----5b-----5r---5r-5r-|--5r-5r-------------------|--------------------6--6--|
--x--5b-----5r---5r-5r-|--5r-5r-5b-5b-5b-5b-5--5--|--3-------5--5--5/7-------|
--x--------------------|--------------------------|-----5--------------------|
-----------------------|--------------------------|--------------------------|
-----------------------|--------------------------|--------------------------|
                                                      
Dm7                         G
--------------------------|--------------------------|
----6/-8--8--8--8--0--x-x-|--5b---5b-5b5b5b-5b-5b-5b-|
-------------------0--x-x-|--5b---5b-5b5b5b-5b-5b-5b-|
--------------------------|--------------------------|
--------------------------|--------------------------|
--------------------------|--------------------------|

 F                           Em                     A7                                                
--------------------------|-------7---------------|----------5------------|
--5b-5b-5b-5b-5--5--------|-------8---------------|----------5------------|
--5b-5b-5b-5b-5--5--3-----|--9----9---------------|---------------6-------|
-----------------------5--|-----------------5--5--|--7------------7--7\---|
--------------------------|--------------7--------|-------7---------------|
--------------------------|-----------------------|-----------------------|

D
----------------------|---------------------|---------------------|
----------------------|---------------------|---------------------|
--9b---------------9b-|------------------9b-|------------------9b-|
-------------7h-9-----|------------7h-9-----|------------7h-9-----|
----------------------|---------------------|---------------------|
----------------------|---------------------|---------------------|
 
                      Em                                                                 
---------------------|---------------------|---------------------|
---------------------|---------------------|---------------------|
------------------7b-|------------------7b-|------------------9b-|
------------7h-9-----|------------7h-9-----|------------7h-9-----|
---------------------|---------------------|---------------------|
---------------------|---------------------|---------------------|
D                          two guitars                                         
---------------------|-----------------------|---------------------|
---------------------|--------------7h-8--8b-|------------7--8--8b-|
------------------9b-|------9b---9--7-----7b-|------------------9b-|
------------7h-9-----|-----------------9-----|------------7--9-----|
---------------------|-----------------------|---------------------|
---------------------|-----------------------|---------------------|
                                                                 
                                                   
---------------------|---------------------|---------------------|
------------7--8--8b-|------------7--8--8b-|------------7--8--7b-|
------------------9b-|------------------9b-|------------------7b-|
------------7--9-----|------------7--9-----|------------7--9-----|
---------------------|---------------------|---------------------|
---------------------|---------------------|---------------------|
                                 
Em                                           D                                 
---------------------|---------------------|---------------------|---------------|
------------7--8--7b-|------------7--8--7b-|------------7--8--8r-|---------------|
------------------7b-|------------------9b-|------------------9r-|---hold bend---|
------------7--9-----|------------7--9-----|------------7--9-----|---------------|
---------------------|---------------------|---------------------|---------------|
---------------------|---------------------|---------------------|---------------|

BRIDGE: again

VERSE 1: again

Chords:D    xxx 11 10 10   	Em   xxx12 12 12	F#m  x,9,11,11,10,9
       F    x,8,10,10,10,8	A7   575655