Supergrass-Cheapskate

E|------------------------|
B|------------------------|
G|------------------------|
D|-------------5-----4----|
A|--0------5h7----0-------|
E|------------------------|

THIS RIFF ALL THRU THE VERSE

Verse
Am   G  D Am   G     D  Am      G  D   Am   G  D
Lift me up, and move in closer.
Holding on to what I know,
Shes the one who plays with fire,
I see a side you'll never know.

Chorus
A                     Bm7
I need someone to be around
    E                 A   Asus4  A
Cos I'm breaking into life
         Bm7
Somebody stop me
    E     
Cos I'm looking for my high
looking for my high   

Verse
Shes the one who plays with fire,
I see a side you'll never know.

Chorus
A                     Bm7
I need someone to be around
    E                 A   Asus4  A
Cos I'm breaking into life
         Bm7
Somebody stop me
    E     
Cos I'm looking for my high
looking for my high 

E|----------------------|----------------------|
B|----------------------|----------------------|
G|-----7-------6--------|----------------------|
D|----------------------|----------------------|
A|----------------------|---------------5------|
E|--0-------0-----------|----------5h7------7--|
                                                                              
E|----------------------|--------------------------|------------------------|
B|--8----8----8----8----|--8----8------------------|--5---------------------|
G|--7b---7b---7b---7b---|--7b---7b---7-7-7-7-5-----|--5-------------5-------|
D|----------------------|-----------------------7--|-------7---7-7--5----7--|
A|----------------------|--------------------------|------------------------|
E|----------------------|--------------------------|------------------------|
                                                                         
------------5----5--|--5----5-------------5--|----5----5----------------|
------------8b---8b-|--8b---8b------------8b-|----8b---8b---------x-x-x-|
--------------------|------------5b----------|------------5b------x-x-x-|
--------------------|---------------7--5-----|---------------7--5-------|
--------------------|------------------------|--------------------------|
--------------------|------------------------|--------------------------|
                                                       
-------------------------------|----------------------|
-----------------------------x-|--8----8----8---------|
------5------5------5------5-x-|--7b---7----7--9\-----|
--5h7----5h7----5h7----5-7-----|----------------------|
-------------------------------|----------------------|
-------------------------------|----------------------|

Chorus
A                     Bm7
I need someone to be around
    E                 A   Asus4  A
Cos I'm breaking into life
         Bm7
Somebody stop me
    E     
Cos I'm looking for my high
               A
looking for my high   
Yeah you and me yeah,
Now I'm breaking through the door,
Somebody stop me, cause I'm looking for my,
Looking for my.....

E|----------------------|----------------------|
B|----------------------|----------------------|
G|-----7-------6--------|----------------------|
D|----------------------|----------------------| to end
A|----------------------|---------------5------|
E|--0-------0-----------|----------5h7------7--|