G-Song - by Supergrass

Intro/Verse:
------------

(in order to sound like the recording, play the bass e string twice
first for each chord, then the rest of the chord to get that "tu dudum
wack" sound)


Gm  Eb  F  Cm  Bb

Gm                 Eb 
As I walk into the night
  F		      Cm	 Bb
I don't feel that I'm feeling to scratch

      Gm	    Eb
And I want to carry on,
      F		   Cm		  Bb
but I can't see anyone who'd take time


Bridge:
-------
(no chords:N.C.)   (riff 1)	     (riff 2)
There may be troubles,       in your mind...

Riff 1:		 Riff 2:
e:-------------|-----------------|
B:-------------|-----------------|
G:---10-12-----|--------9--12----|
D:12-------11--|-----10----------|
A:-------------|--10----------10-|
E:-------------|-----------------|
	    riff1		riff 2
Maybe tomorrow, could be fine...

Verse 2:
--------

I feel like going home,
But I don't kow


Bridge again...
--------------

Solo n#1:
---------
   A5
e:----------------------------------------|
B:----------------------------------------|
G:----------------------------------------|
D:-7-----5h7-----5--9b(10)-----5h7-----5--|
A:-7--7-------7-------------7-------7-----|
E:-5--------------------------------------|


Solo n#2:  (from Total Guitar)
---------

Play bridge again:  There may be...
-----------------

Play solo 1 once
then shift up a gear to B?