Supergrass-Hollow Little Reign

intro: Gm  Am/F  Gm  Am/F  Gm  Am/F  Gm  Am/F
         Gm  Am/F  Gm  Am/F  Gm  Am/F  Eb  Bbmaj7  D(w/wah-wah pedal)

verse1:Gm Am/F  Gm               Am/F
           Uptight,  thinking things over
           Gm    Am/F                     Eb          Bbmaj7  D
           Conversations running 'round my head
           Gm    Am/F  Gm               Am/F
           Good times last so much longer
           Gm                Am/F             Eb                Bbmaj7  D
           And summer loving going straight to my head

chorus:C     Fm Fm/Bb  Fm/B F/C    E   D
           Someday  when  I        care.........

verse2:Gm  Am/F      Gm           Am/F
           Cool skies, drinking the sunshine
           Gm        Am/F                Eb          Bbmaj7  D
           Feel the wind blowing through my hair
           Gm      Am/F  Gm      Am/F
           It's our time, talking it over
           Gm        Am/F                  Eb       Bbmaj7  D
           Take you home falling 'round my bed

repeat chorus

Horn solo arranged for guitar:
e-----------------------------------------------------------------------------------
B-8--10------8---10-------8---10--------8---10-----------9--------------9-----------
G-------9-------------7--------------9--------------5----------9---7--9----9---7--9-
D-----------------------------------------------------------------------------------
A-----------------------------------------------------------------------------------
E-----------------------------------------------------------------------------------

verse3:Gm  Am/F   Gm                  Am/F
           Sometimes clouds will come over
           Gm           Am/F         Eb          Bbmaj7  D
           Yet they'll spot some fun in our eyes
            Gm  Am/F      Gm               Am/F
           One day when we feel a lot better
            Gm     Am/F                 Bmaj7  D
           Take a train to a cooler clime

repeat chorus

guitar solo(w/wah-wah pedal)
e----------------------------------------------------------------------------------------------
B--8----11--10---8---6---8----------------------------------------------------------------
G--------------------------------7--9--10---9---7---5---7---7--(5)--(7)--7--5--3--2--
D----------------------------------------------------------------------------------------------
A----------------------------------------------------------------------------------------------
E----------------------------------------------------------------------------------------------

e----------------------------------------------------------------------------------------------
B----11--10---8--6--8------------------------------------------------------------------
G------------------------------7---9---10---9---7---5--7---7--(5)--(7)--7--------------
D---------------------------------------------------------------------------------------------
A----------------------------------------------------------------------------------------------
E----------------------------------------------------------------------------------------------

e----------------------------------------------------------------------------------------------
B-----13---11-------11---------13---11--------11----------------11--10--8--6--8----
G----------------12------12----------------12-------12---12-----------------------------
D---------------------------------------------------------------------------------------------
A---------------------------------------------------------------------------------------------
E---------------------------------------------------------------------------------------------

e-------------------------------------------------------------
B-------------------------------------------------------------
G--7--9--10--9--7--5--7---7--(5)--(7)--7---5--3---2--
D-------------------------------------------------------------
A--------------------------------------------------------------
E--------------------------------------------------------------

Gm......