I'd Like To Know by Supergrass

E 		x7999x
D		x5777x or 10 12 12 11 10 10
A		577655
C	 	8 10 10 9 8 8
D#		11 13 13 12 11 11
F		x 8 10 10 10 x
G		355433
Bb		688766
Dmaj7/C#	x4777x
Bm7		x24232
F#m		244222
Dm		x57665
Dm7		x57565

INTRO:
One! Two!   One! Two! Three! Four! 
E|-----------------------------------------------------|
B|-----------------------------------------------------|
G|-----------------------------------------------------|
D|-----------------------------------------------------|
A|--21/////////////////////////////////////////////2---|
E|--19/////////////////////////////////////////////0---|
Slide down, strumming as fast as you can!!

VERSE 1:
E   D  | E   D | E   D | E  D A D|

E         D           |E             D        |E  D |E  D     
I like to wake up on a Saturday say "Hello You"
E        D        |E            D           |E  D |E  D
A cup of coffee and smoke a cigarette or two

BRIDGE:
|A              |C               |D    
Never had it so good so long, so long, but now got I've got it             
|D#                  |E  D |E  D |E  D |E  D A D     
It could be like before

VERSE 2:
E           D              |E            D        |E  D |E  D
I'd like to run around with everyone you know its true
E                D                |E             D      |E  D |E  D| A
Driving down the street I'm always looking for a better view

CHORUS:
F           |C                 |A              |   A  |
I'd like to know where all the strange ones go
F           |C               |A              |   A  |      
I'd like to go where all the strange ones go
F           |C                |A              |   A  |     
I'd like to know what all the strange ones know
F        |C               |D              |     D#    |      
I'm gonna go where all the strange ones go, here I go 

E   D  | E   D | E   D | E  D A D|

VERSE 3
E         D           |E           D          |E  D |E  D
I like to wake up in a middle of a dream with you
E            D              |E             D     |E  D | A
Going up and down I'm always looking for a better view

CHORUS

SOLO
|-------------------|------------------|------------------|
|-------------------|------------------|------------------|
|-------------------|------------------|------------------|
|--9----------------|------------------|------------------|
|-------------------|------------------|------------------|
|-------------------|------------------|------------------|
                                                                          
-------------------------|--------------------------|--------------------|
-------------------------|--------------------------|--------------------|
-------------------------|--------------------------|--------------------|
----------7----9----7----|--6-----------------------|--------------------|
-------------------------|-------7----5-------------|--------------------|
-------------------------|-----------------------7--|--------5--------4--|
                                                            
--------------------|------------------|-------------------|
--------------------|------------------|-------------------|
--------------------|------------------|-------------------|
--------------------|------------------|--9----------------|
--------------------|------------------|-------------------|
--------2--------0--|------------------|-------------------|
                                                                        
------------------------|--------------------|-------------------------|
------------------------|--------------------|-------------------------|
------------------------|--------------------|-------------------------|
------9/-11------11\-7--|------7/-9----------|----------7----9----7----|
------------------------|--------------------|-------------------------|
------------------------|--------------------|-------------------------|
                                                                    
--------------------------|--------------------|-------------------|
--------------------------|--------------------|-------------------|
--------------------------|--------------------|-------------------|
--6-----------------------|--------------------|-------------------|
-------7----5-------------|--------------------|-------------------|
-----------------------7--|--------5--------4--|--------2----------|
                            
--------------------------||
--------------------------||
--6--6--6--6--6--6--6--6--||
--7--7--7--7--7--7--7--7--||
--7--7--7--7--7--7--7--7--||
--5--5--5--5--5--5--5--5--||

CHORUS:
F           |C                 |A              |   A  |
I'd like to know where all the strange ones go
F           |C               |A              |   A  |      
I'd like to go where all the strange ones go
F           |C                |A              |   A  |     
I'd like to know what all the strange ones know
F        |C               |D               | D  C  |         D         |  D  |
I'm gonna go where all the strange ones go,     all the strange ones go

ENDING:      
E|-----------------------------------------------------|
B|-----------------------------------------------------|
G|-----------------------------------------------------|
D|-----------------------------------------------------|
A|--21\\\\\\\\\\\\\\\\\\\\\\\\\\\\\\\\\\\\\\\\\\\\\2---|
E|--19\\\\\\\\\\\\\\\\\\\\\\\\\\\\\\\\\\\\\\\\\\\\\0---|

G A | Bb
G A | D
G A | Bb
D Dmaj7/C# | Bm7 G F#m | F#m A
D Dmaj7/C# | Bm7 G

G | A | Bb
G | A | D
G | A | Bb
D Dmaj7/C# | Bm7 G F#m |   A
D Dmaj7/C#   

SOLO:
  Bm7       G                                                     
|-------------------10--|------10--10------10----10--|
|-------------------10--|------10--10------10----10--|
|-----------------------|--------------12b-----------|
|-----------------------|----------------------------|
|-----------------------|----------------------------|
|--7----7\---3----------|----------------------------|
                                                           
------10--10------10----10--|----10-----------------------|
------10--10------10----10--|----10---------------10------|
--------------12b-----------|--------12r-12r------10------|
----------------------------|------------------0------12--|
----------------------------|-----------------------------|
----------------------------|-----------------------------|
                                                               
-------------------------------|------------------------------|
-------------------------------|--------10------------10------|
-------------------------------|--------10--10--------10------|
----12--12--12--12-----12--10--|------------10--------10--10--|
--------------------x------10--|----12------10----12------10--|
-------------------------------|------------------------------|
                                                        
------------------------------|------------------------|
--------10------------10--8---|------8-----8-----8-----|
--------10--10--------12b-10b-|------10b---10b---10b---|
--------10--10----------------|------------------------|
----12------10----12----------|------------------------|
------------------------------|------------------------|
                                                             
--------------------------------|----------------------------|
--8-----8---8---8---8---8---10--|--10----10----10----10--10--|
--11b---11b-11b-11b-11b-11b-12b-|--12b---12b---12b---12b-12b-|
--------------------------------|----------------------------|
--------------------------------|----------------------------|
--------------------------------|----------------------------|
                                  
--------------------------------||
--10--10------------------------||
--12b-12b-12b17-12--16\---------||
--------------------------------||
--------------------------x--x--||
--------------------------x--x--||

Bb  | Bb  Dm | Dm Dm7 | Dm7 |
Bb  | C  A | A | A | A | A G |
G | A Bb | Bb | Bb C D |