In it for the Money-Supergrass

Intro:

   Amadd11+                  D7sus2
e:-------------------------|------------------------|
B:-----1--------1----------|----1--------1----------|
G:--------2--------2-----2-|-------2--------2-----2-|
D:--1--------1--------1----|-0--------0--------0----|
A:-------------------------|------------------------|
E:-------------------------|------------------------|


   AmMaj7                   Am
e:------------------------|-------------------------|-----------|
B:----1--------1----------|----1--------1-----------|-----------|
G:-------1--------1-----1-|-------2--------2-----2--|--Back-to--|
D:-2--------2--------2----|----------2--------2-----|-beginning-|
A:------------------------|-0-----------------------|-----------|
E:------------------------|-------------------------|-----------|
 Am Amdim D7sus2  AmMaj7   Am       Amdim D7sus2  AmMaj7        Am
    Heeeeeeeey, I see it's time, to goooooo, and leave it all behind,
 Aaaaaaaand, you know it's wrong to faaaaaaalll,
                           
    Last one:               
   AmMaj7
e:-------------------0-----|
B:----1--------3-----------|
G:-------1--------1--------|
D:-2--------2-----------2--|
A:-------------------------|
E:-------------------------|
to faaaaaaaaaaaalllllll

Chorus 1:
---------
A x02220                        A+ x03221
We're in it for the money (x2), We're in it for the money (x2)
A6 x04222                       A7 x02020 or 575655
We're in it for the money (x2), We're in it for the money, money, money

Chorus 2:
---------
        D                    F             C               B   Bb
 Got my mind made up, got my finger on the button, going awaay home
Got the sun turned down, got a feeling in my pocket going awaay home
      D                    C         Bb              G      }
  But all I can see is our love, and all I can be is hurt...} x2

Bridge:
-------
        D  F  C  B Bb  x2

Play Chorus 2 x5 times, end abruptly on Bb.

F  		133211
C  		x35553 or 032010
B  		x24442
Bb 		x13331
D  		x57775 or x00232
G  		355433 or 320033
Am     	x02210
Amadd11+ 	x01210
D7sus2 	x00210
AmMaj7 	x02110