I Should Coco-Supergrass

I'd Like To Know by Supergrass

E 		x7999x
D		x5777x or 10 12 12 11 10 10
A		577655
C	 	8 10 10 9 8 8
D#		11 13 13 12 11 11
F		x 8 10 10 10 x
G		355433
Bb		688766
Dmaj7/C#	x4777x
Bm7		x24232
F#m		244222
Dm		x57665
Dm7		x57565

INTRO:
One! Two!   One! Two! Three! Four! 
E|-----------------------------------------------------|
B|-----------------------------------------------------|
G|-----------------------------------------------------|
D|-----------------------------------------------------|
A|--21/////////////////////////////////////////////2---|
E|--19/////////////////////////////////////////////0---|
Slide down, strumming as fast as you can!!

VERSE 1:
E   D  | E   D | E   D | E  D A D|

E         D           |E             D        |E  D |E  D     
I like to wake up on a Saturday say "Hello You"
E        D        |E            D           |E  D |E  D
A cup of coffee and smoke a cigarette or two

BRIDGE:
|A              |C               |D    
Never had it so good so long, so long, but now got I've got it             
|D#                  |E  D |E  D |E  D |E  D A D     
It could be like before

VERSE 2:
E           D              |E            D        |E  D |E  D
I'd like to run around with everyone you know its true
E                D                |E             D      |E  D |E  D| A
Driving down the street I'm always looking for a better view

CHORUS:
F           |C                 |A              |   A  |
I'd like to know where all the strange ones go
F           |C               |A              |   A  |      
I'd like to go where all the strange ones go
F           |C                |A              |   A  |     
I'd like to know what all the strange ones know
F        |C               |D              |     D#    |      
I'm gonna go where all the strange ones go, here I go 

E   D  | E   D | E   D | E  D A D|

VERSE 3
E         D           |E           D          |E  D |E  D
I like to wake up in a middle of a dream with you
E            D              |E             D     |E  D | A
Going up and down I'm always looking for a better view

CHORUS

SOLO
|-------------------|------------------|------------------|
|-------------------|------------------|------------------|
|-------------------|------------------|------------------|
|--9----------------|------------------|------------------|
|-------------------|------------------|------------------|
|-------------------|------------------|------------------|
                                                                          
-------------------------|--------------------------|--------------------|
-------------------------|--------------------------|--------------------|
-------------------------|--------------------------|--------------------|
----------7----9----7----|--6-----------------------|--------------------|
-------------------------|-------7----5-------------|--------------------|
-------------------------|-----------------------7--|--------5--------4--|
                                                            
--------------------|------------------|-------------------|
--------------------|------------------|-------------------|
--------------------|------------------|-------------------|
--------------------|------------------|--9----------------|
--------------------|------------------|-------------------|
--------2--------0--|------------------|-------------------|
                                                                        
------------------------|--------------------|-------------------------|
------------------------|--------------------|-------------------------|
------------------------|--------------------|-------------------------|
------9/-11------11\-7--|------7/-9----------|----------7----9----7----|
------------------------|--------------------|-------------------------|
------------------------|--------------------|-------------------------|
                                                                    
--------------------------|--------------------|-------------------|
--------------------------|--------------------|-------------------|
--------------------------|--------------------|-------------------|
--6-----------------------|--------------------|-------------------|
-------7----5-------------|--------------------|-------------------|
-----------------------7--|--------5--------4--|--------2----------|
                            
--------------------------||
--------------------------||
--6--6--6--6--6--6--6--6--||
--7--7--7--7--7--7--7--7--||
--7--7--7--7--7--7--7--7--||
--5--5--5--5--5--5--5--5--||

CHORUS:
F           |C                 |A              |   A  |
I'd like to know where all the strange ones go
F           |C               |A              |   A  |      
I'd like to go where all the strange ones go
F           |C                |A              |   A  |     
I'd like to know what all the strange ones know
F        |C               |D               | D  C  |         D         |  D  |
I'm gonna go where all the strange ones go,     all the strange ones go

ENDING:      
E|-----------------------------------------------------|
B|-----------------------------------------------------|
G|-----------------------------------------------------|
D|-----------------------------------------------------|
A|--21\\\\\\\\\\\\\\\\\\\\\\\\\\\\\\\\\\\\\\\\\\\\\2---|
E|--19\\\\\\\\\\\\\\\\\\\\\\\\\\\\\\\\\\\\\\\\\\\\\0---|

G A | Bb
G A | D
G A | Bb
D Dmaj7/C# | Bm7 G F#m | F#m A
D Dmaj7/C# | Bm7 G

G | A | Bb
G | A | D
G | A | Bb
D Dmaj7/C# | Bm7 G F#m |   A
D Dmaj7/C#   

SOLO:
  Bm7       G                                                     
|-------------------10--|------10--10------10----10--|
|-------------------10--|------10--10------10----10--|
|-----------------------|--------------12b-----------|
|-----------------------|----------------------------|
|-----------------------|----------------------------|
|--7----7\---3----------|----------------------------|
                                                           
------10--10------10----10--|----10-----------------------|
------10--10------10----10--|----10---------------10------|
--------------12b-----------|--------12r-12r------10------|
----------------------------|------------------0------12--|
----------------------------|-----------------------------|
----------------------------|-----------------------------|
                                                               
-------------------------------|------------------------------|
-------------------------------|--------10------------10------|
-------------------------------|--------10--10--------10------|
----12--12--12--12-----12--10--|------------10--------10--10--|
--------------------x------10--|----12------10----12------10--|
-------------------------------|------------------------------|
                                                        
------------------------------|------------------------|
--------10------------10--8---|------8-----8-----8-----|
--------10--10--------12b-10b-|------10b---10b---10b---|
--------10--10----------------|------------------------|
----12------10----12----------|------------------------|
------------------------------|------------------------|
                                                             
--------------------------------|----------------------------|
--8-----8---8---8---8---8---10--|--10----10----10----10--10--|
--11b---11b-11b-11b-11b-11b-12b-|--12b---12b---12b---12b-12b-|
--------------------------------|----------------------------|
--------------------------------|----------------------------|
--------------------------------|----------------------------|
                                  
--------------------------------||
--10--10------------------------||
--12b-12b-12b17-12--16\---------||
--------------------------------||
--------------------------x--x--||
--------------------------x--x--||

Bb  | Bb  Dm | Dm Dm7 | Dm7 |
Bb  | C  A | A | A | A | A G |
G | A Bb | Bb | Bb C D |

Caught by the Fuzz

A		x0222x
A(V) 		5776xx
A7		575xxx
D		x54xxx
D(V)		x5777x
C#		x43xxx
F#m(IX)	x9 11 11 10 x 
F#m		2442xx
E		0221xx
E(VII)	x7999x
E/G#		4764xx
F		x8 10 10 10 x
Bb		6887xx
Bm	`	x24432
C#m		x46654
Amaj7		x02120
                    
Intro
A(V)

Verse
A7
  Caught by the fuzz
D 
  Well I was
C#             F#m
  Still on the buzz
A7
  In the back of the van
D
  With my 
C#              F#m  
  my head in my hands
A7     
  It's like a bad dream 
D
  I was 
C#     F#m
  only 15

Chorus
     Bm                    C#m
  If only my brother could be here now
       F#m(IX)        E(VII)      D(V)
  He'd get me out and sort me out alright
                       E(VII)
  I knew I should have stayed at home tonight

Verse
A7              D
  Locked in the cell
C#                F#m
  Feeling unwell
A7            D
  I talk to a man he says
C#          F#m
  Better to tell
A7                 D
  Who sold you the blow
C#                     F#m
  Well it was no one I know
     
Chorus
     Bm                      C#m
  If only you'd tell us we'd let you go
       F#m(IX)             E(VII)     D(V)
  We'd make it alright for you if you tell us what you know
                           E(VII)
  We'd make you wish you'd stayed at home tonight

Bridge
  F#m E/G# D(V) E(VII) F Bb E A x2

Verse
A7              D
  Here comes my mum
C#                              F#m
  Well she, she knows what I've done
A7                   D 
  Just tell them the truth
C#                    F#m
  You know where it's from
A7                     D
  You've blackened our name
C#                   F#m
  Well you should be ashamed

Chorus
     Bm                       C#m 
  If only you're father could be here now
       F#m(IX)             E(VII)            D(V)
  He'd break down and he'd throw you out for sure
                      E(VII)      A
  I never should have let you out tonight

Outro (over "tonight" x15)
A Amaj7 A Amaj7 A

Mansize Rooster by Supergrass

INTRO:
E|-----------------------|
B|---3-3--4-4--5-5--4-4--|
G|---4-4--4-4--4-4--4-4--|
D|---5-5--5-5--5-5--5-5--|  Repeated
A|-----------------------|
E|-----------------------|

VERSE 1:
Wait a minute now you just can't run away
You got no money and you got no place to stay
Things are bad but there's always another way
G
How would you know if you never ever say me


PRE-CHORUS:
     C                    Cm
E|------------------------------------------------------|
B|------------------------------------------------------|
G|------------------------------------------------------|
D|------5--7---7b--7--5--7------5--7--7b--7--5----------|
A|---7----------------------6-------------------6--5----|
E|------------------------------------------------------|
     Oh no when I look at you I scream

CHORUS:
D7
Why you looking so crazy 
D7                            G
Why you looking so lonely for love
                     Em7
What do you wanna be now  

D7
Why you looking so crazy 
D7                            G
Why you looking so lonely for love
                      Em7
What do you wanna see now  


BRIDGE:
D7
Wait a minute is all wrong
D7
Wait a minute its all gone wrong

Play intro

VERSE 2:
Wait a minute now you just can't hide away 
You got no money but you got no face to save
You think its bad but theres always another way
G
How would you know if you never ever saw me

PRE-CHORUS

CHORUS

ENDING:

G                            Em7   Eb
What do you wanna be now oooooh  Yeah
G                         Em7  Eb
What do you wanna see  ooooooh Yeah
G                       Em7  Eb
What do you wanna be  ooooooh Yeah
G                         Em7  Eb
What do you wanna feel  oooooooh Yeah

      G          Em7      
E|---3-3-3-3---3-3-3-3---7-7-7-7-7-7--|
B|---3-3-3-3---3-3-3-3---7-8-7-8-7-8--|
G|---0-0-0-0---0-0-0-0---7-7-7-7-7-7--|   Repeated to
D|---0-0-0-0---2-2-2-2---7-9-7-9-7-9--|         Fade
A|---2-2-2-2---2-2-2-2----------------|
E|---3-3-3-3---0-0-0-0----------------|
     
Note:      D7     = x5453x
           G      = 320033
           Em7    = 022033
           Eb     = x6888x

Alright                               

INTRO:  D

VERSE 1:
[D]We are young, we run green
[D]Keep our teeth, nice and clean
[Em]See our friends see the sights feel 
[D]alright

VERSE 2:
[D]We wake up, we go out
[D]Smoke a fag, put it out
[Em]See our friend, see the sights feel 
[D]alright

BRIDGE:
[F#m]Are we like you
[F]I can't be sure
[Em]Of the scene as she turns we are
[A7]Strange in our worlds

VERSE 3:
[D]We are young, We get by
[D]Can't go mad, ain't got time
[Em]Sleep around if we like but we're 
[D]alright

VERSE 4:
[D]Got some cash, got some wheels
[D]Took it out, cross the fields
[Em]Lost control, hit a wall we're 
[D]alright

BRIDGE:

VERSE 1:

SOLO:
            G                       Dm7
E||-------|------------------------|------------------------|
B||-------|------------------------|------------------------|
G||-------|------------------------|------3----------3--x-x-|
D||-------|------------------0--3--|------3--5--5-------x-x-|
A||-------|------------1h-3--------|------------------------|
E||-15\---|--3------3--------------|------------------------|
                                       
G                        F                          G                                       
-----------------------|--------------------------|--------------------------|
-----5b-----5r---5r-5r-|--5r-5r-------------------|--------------------6--6--|
--x--5b-----5r---5r-5r-|--5r-5r-5b-5b-5b-5b-5--5--|--3-------5--5--5/7-------|
--x--------------------|--------------------------|-----5--------------------|
-----------------------|--------------------------|--------------------------|
-----------------------|--------------------------|--------------------------|
                                                      
Dm7                         G
--------------------------|--------------------------|
----6/-8--8--8--8--0--x-x-|--5b---5b-5b5b5b-5b-5b-5b-|
-------------------0--x-x-|--5b---5b-5b5b5b-5b-5b-5b-|
--------------------------|--------------------------|
--------------------------|--------------------------|
--------------------------|--------------------------|

 F                           Em                     A7                                                
--------------------------|-------7---------------|----------5------------|
--5b-5b-5b-5b-5--5--------|-------8---------------|----------5------------|
--5b-5b-5b-5b-5--5--3-----|--9----9---------------|---------------6-------|
-----------------------5--|-----------------5--5--|--7------------7--7\---|
--------------------------|--------------7--------|-------7---------------|
--------------------------|-----------------------|-----------------------|

D
----------------------|---------------------|---------------------|
----------------------|---------------------|---------------------|
--9b---------------9b-|------------------9b-|------------------9b-|
-------------7h-9-----|------------7h-9-----|------------7h-9-----|
----------------------|---------------------|---------------------|
----------------------|---------------------|---------------------|
 
                      Em                                                                 
---------------------|---------------------|---------------------|
---------------------|---------------------|---------------------|
------------------7b-|------------------7b-|------------------9b-|
------------7h-9-----|------------7h-9-----|------------7h-9-----|
---------------------|---------------------|---------------------|
---------------------|---------------------|---------------------|
D                                                                   
---------------------|-----------------------|---------------------|
---------------------|--------------7h-8--8b-|------------7--8--8b-|
------------------9b-|------9b---9--7-----7b-|------------------9b-|
------------7h-9-----|-----------------9-----|------------7--9-----|
---------------------|-----------------------|---------------------|
---------------------|-----------------------|---------------------|
                                                                 
                                                   
---------------------|---------------------|---------------------|
------------7--8--8b-|------------7--8--8b-|------------7--8--7b-|
------------------9b-|------------------9b-|------------------7b-|
------------7--9-----|------------7--9-----|------------7--9-----|
---------------------|---------------------|---------------------|
---------------------|---------------------|---------------------|
                                 
Em                                           D                                 
---------------------|---------------------|---------------------|---------------|
------------7--8--7b-|------------7--8--7b-|------------7--8--8r-|---------------|
------------------7b-|------------------9b-|------------------9r-|---hold bend---|
------------7--9-----|------------7--9-----|------------7--9-----|---------------|
---------------------|---------------------|---------------------|---------------|
---------------------|---------------------|---------------------|---------------|

BRIDGE: again

VERSE 1: again

Chords:D    xxx 11 10 10   	Em   xxx12 12 12	F#m  x,9,11,11,10,9
       F    x,8,10,10,10,8	A7   575655

Lose It

INTRO:   Riff
E|---------------------------------------|
B|---------------------------------------|
G|-4--4-4--4-4--4-4-------------------4--|    Repeated
D|-4--4-4--4-4--4-4-------------------4--|
A|-0--2-2--0-2--2-0---2-2-2-2-2--0----0--|
E|--------------------0-0-0-0-0--0--2----|

VERSE: Repeat riff through lyrics

Don't lose it Don't lose it 
I won't come home cause you never hold my hand
Don't lose it Don't lose it 
I won't come home cause you never hold my hand

[Csus2]Ooooooooooooooooooooooo  Won't you say my [Riff]name

    Repeat all of above

BRIDGE:
[F#m]I don't want anybody
[G]Anyway I [A]know too much to [D]say
All over [D/C]again

VERSE:

SOLO:
[C]Ooooooooooooooooooooooo   Did you call my [Bm]name

Lenny

INTRO:

E|-------------------------------------------------
B|-------------------------------------------------
G|-------------------------------------------------
D|-------------------------------------------------
A|-------------------------------------------------
E|---0--0--0--0--0--0--0--0--0--0--0--0----etc

VERSE:

Riff A                                            Riff B
E|--------------------------------|----------------------------------|
B|--------------------------------|----------------------------------|
G|--------------------------------|----------------------------------|
D|--------------------------------|-------------------4----4-5-6-----|
A|---------------------5---5-6-7--|------------4-5-6----6---------7--|
E|-0-0-0-0--5-6-7---7-------------|--0-0-0-0-------------------------|

This is played with Vocals

Been around and around but I got nowhere to go now
But the funny thing is that when I'm gone i'll kill you hoo

CHORUS:
B                                     E
When I tell you    I don't want you hoo hoo

Repeat VERSE and CHORUS again :)

SOLO:
Fsus4   F       Fsus4  F 
Ooooo  Oooooooo Ooooo  Oooooooooooooooooo

E|------------------|-------------------|--------------------|---------------------|
B|------------------|-------------------|--------------------|---------------------|
G|------------------|-------------------|--------------------|---------------------|
D|-9-9-7------------|--9-9-7------------|--9-9-7-------------|----------9-9--------|
A|--------9-8-7-----|---------9-8-7-----|----------9-8-7-----|---------------------|
E|-----------------7|----------------7--|------------------7-|-10-10--7-------7----|

Fsus4   F              Fsus4   F
Ooooo  Oooooooo  Ooooo  Oooooooooooooooooo

E|------------------|-------------------|----------------------|-------------------|
B|------------------|-------------------|----------------------|-------------------|
G|------------------|-------------------|----------------------|-------------------|
D|9-9-7-------------|-9-9-7-------------|-9-9-7---------------|-9-9-7--------------|
A|-------9-8-7------|--------9-8-7------|--------9-8-7--------|---------9-8-7------|
E|---------------7--|----------------7--|----------------7----|----------------7---|

( theres some progressive bending in last three bars but I can't figure it out )

Fsus4   F            Fsus4   F
Ooooo  Ooooooo  Ooooo  Ooooooooooooooooooo

E|-----------------------------|------------------------|             
B|-----------------------------|------------------------|      
G|-----------------------------|--7-7-------------------|         Play       
D|-------9-9-7-------7-8-9-----|-------9-7--------------|      4 times :)
B|----------------9------------|-------------9-8-7------|           
E|-----------------------------|------------------------|     

E|----------------------------------|
B|----------------------------------|   
G|----------------------------------|         Play
D|----------------------------------|      3 times :)
A|-----------------7-7-7-7----------|    
E|---0-0-0-0-0-------------0--------|    

VERSE again

ENDING:
B                A                          
When I tell you    When I tell you oooh  
B                    A   G#    G    F#  F   E
YEAH When I tell you   I don't want you hoo hoo


NOTE:
  Fsus4  =  13-15-15-15-13-13
  F      =  13-15-15-14-13-13

Strange Ones

CHORUS:

[A]There's a place where the [C]strange ones go where
[F]Nobody here could [D]know [Em]
[A]They look down from the [C]clouds and smile at
[F]Everyone down [D]below [Em]

[A]There's a place where the [C]strange ones go
[F]Where nobody here could [D]know [Em]
[A]They look down from the [C]underground at
[F]Eveyone down [D]below [Em]

VERSE:
   Am          F         E         Am           F         E
E|-0--0------|-1--1----|-0--0----|-0--3b-0----|-1--1----|-0-0----|
B|-1----1----|-1----1--|-0----0--|-1-------1--|-1----1--|-0---0--|
G|-2------2--|-2-------|-1-------|-2----------|-2-------|-1------|
D|-2---------|-3-------|-2-------|-2----------|-3-------|-2------|
A|-0---------|-3-------|-2-------|-0----------|-3-------|-2------|
E|-----------|-1-------|-0-------|------------|-1-------|-2------|

Well I would [Am]cry for you [F] [E]
I would [Am]die for you [F] [E]
[Am]Every [F]body [E]needs a [Am]home [F] [E]
Well are you [Am]strange enough [F] [E]
Are you [Am]deranged enough [F] [E]
[Am]Every [F]fucker [E]needs a [Am]home [F] [E]

CHORUS: again

VERSE: again

SOLO:
    C#m7                                            C                    
E||--9-----------------|----9---------------------|----------------8--8--|
B||--9-----------------|-------9--------9---------|----------------8--8--|
G||--9-----------------|--------------------------|----------------------|
D||--9-----------------|-------------------9\---5-|--10------------------|
A||--11----------------|----------11-------11\--7-|--10------------------|
E||--9-----------------|----------9--------9\---5-|--8-------------------|
                                 Bm                    
------------------------------|-----------------------|
--8------8-----8---8----------|-----------7-----------|
--9--10--10----10--9----------|--------------7--------|
------------------------------|--------------------9--|
----------------------10--10--|--9--------------9--9--|
----------------------8---8---|--7--------------7--7--|
  Bb                         Am                F        E          
--6--6--6--6--6--6--6--0--|--5------5-----------------------------|
--6--6--6--6--6--6--6--0--|--5------5-----------------------------|
--7--7--7--7--7--7--7-----|--5------5----8-7p5-7--5--4--5--4------|
--8--8--8--8--8--8--8-----|--7------7-------------------------7p5-|
--8--8--8--8--8--8--8-----|--7------7-----------------------------|
--6--6--6--6--6--6--6-----|--5------5-----------------------------|
  Am             F        E           Am             F         E         
-----------------------------------|------------------------------0--0--|
-----------------------------------|------------------------------8--8--|
-----------------------------------|---------------------5--7--9--------|
--7----------3-3-3--2--0-----------|-----------5--5--5h7----------------|
--------------------------3p-2-----|--0---------------------------------|
--------------------------------3--|------------------------------------|
  Am              F        E           Am               F       E          
---------8-----8-----8-----8--------|--5----------------------------------|
--8b--------8b----8b----8b----8--8--|--5----------------------------------|
------------------------------------|-------------7\5-5/7-5h-4--5--4------|
------------------------------------|---------------------------------7p5h|
------------------------------------|-------------------------------------|
------------------------------------|-------------------------------------|
  Am             F        E          Am             F         E           
----------------------------------|--------------------------------------|
----------------------------------|--------------------------------------|
----------------------------------|-----------0--0------5--7-------------|
--7----------3-3-3--2-------------|-----------------5h7-------0--x-x-x-x-|
-----------------------3--2-------|--------------------------------------|
-------------------------------3--|--5-----------------------------------|
  Am             F         E      Am              F       E        
-------------------------------|----------------------------------|
--5------8-------10------------|--10------10------10------10------|
--7r-----10r-----12b-----------|--12b-----12b-----12b-----12b-----|
-------------------------------|----------------------------------|
-------------------------------|----------------------------------|
-------------------------------|----------------------------------|
  Am              F       E            Am            F        E         
------------------------------------|--0------0------1--1--1--0--0--0--|
--10------10------10------10--------|--1------1------1--1--1--0--0--0--|
--12b-----12b-----12b-----12b-------|--2------2------2--2--2--1--1--1--|
------------------------------------|--2------2------3--3--3--2--2--2--|
------------------------------x--x--|--0------0------3--3--3--2--2--2--|
------------------------------x--x--|----------------1--1--1--0--0--0--|
  Am            F        E          
--0------0------1--1--1--0--0--0--|
--1------1------1--1--1--0--0--0--|
--2------2------2--2--2--1--1--1--|
--2------2------3--3--3--2--2--2--|
--0------0------3--3--3--2--2--2--|
----------------1--1--1--0--0--0--|

PLAY CHORUS:
[A]There's a place where the [C]strange ones go where
[F]Nobody here could [D]know [Em]
[A]They look down from the [C]clouds and smile at
[F]Everyone down [D]below [Em]

[A]There's a place where the [C]strange ones go
[F]Where nobody here could [D]know [Em]
[A]They look down from the [C]underground at
[F]Eveyone down [G]below

ENDING:                                                                
|--5------------x--5--|--------------x--5--|--------------x--5--|
|--5------------x--5--|--------------x--5--|--------------x--5--|
|--6------------x--5--|--------------x--6--|--------------x--5--|
|--7------------x--5--|--------------x--7--|--------------x--5--|
|--7------------x--5--|--------------x--7--|--------------x--5--|
|--5------------x--5--|--------------x--5--|--------------x--5--|
                                                                  
--------------x--5-5-|--5------5------5----|----5------5----5----|
--------------x--5-5-|--5------5------5----|----5------5----5----|
--------------x--6-6-|--6------6------6----|----6------6----6----|
--------------x--7-7-|--7------7------7----|----7------7----7----|
--------------x--7-7-|--7------7------7----|----7------7----7----|
--------------x--5-5-|--5------5------5----|----5------5----5----|
                   
--5----------------||
--5----------------||
--6----------------||
--7----------------||
--7----------------||
--5----------------||

Sitting Up Straight

G		3x0033
G/F		1x003x
Em		022000
Eb		x6888x
Em7		022033
Am		x02210
F		133211
D		xx0232
F#7		242322
Bm		x24432
A7sus4	x02030
A7		x02020
C		x32010
Bb		x1333x
G7		3x3003
A		x02220

Piano
D F# Bm D7 G7 A x2

Guitar

Intro
G G/F G G/F x2

Verse
G                                    G/F 
Sitting up straight at the back of a bus
G                     G/F           Em        Eb
Mimicking time as the evening turns to dusk
G                        Em7 
Look at the boy with his face on the floor
G                           Em7               Am    F   G
Have a little smoke just to pass the time of day

D   F#7  Bm D       G           A7sus4 A7
Hes like me he'd do anything to get away 
  D    F#7 Bm  D        G           A7sus4 A7
I know can you be there every day I know I can 
  D     F#7 Bm D        G              Em7            Am    C   D
Believe in you it means everything and every power to me

D C D C D C D C

D                          C 
Sitting up straight on the back of a bus
D                     C             Bm       Bb
Mimicking time as the evening turns to dusk
D                        Bm 
Look at the boy with his face on the floor
D                           Bm               Em     G    D
Have a little smoke just to pass the time of day

D   F#7  Bm D        G           A7sus4 A7
Hes like me he'll do anything to get away 
  D    F#7 Bm  D        G           A7sus4 A7
I know can you be there every day I know I can 
  D     F#7 Bm D        G             G7             A 
Believe in you it means everything in every power to me

Solo
E|---10-10-10-8-10------------------|---10-10-10-8-10---------------|
B|---10-10-10-8-10------------------|---10-10-10-8-10---------------|
G|-----------------------10-9-8-7-7-|---------------------10-9-8-7--|
D|--------------------------------- |-------------------------------|
A|----------------------------------|-------------------------------|
E|----------------------------------|-------------------------------|

E|----------------------------------|-------------------------------|
B|--------------8-8----------8b--6--|---8-8-10b-10b-10b-10b-12b-12b-|
G|7--7--7-7-7--------7--7-----------|7-7----------------------------|
D|----------------------------------|-------------------------------|
A|----------------------------------|-------------------------------|
E|----------------------------------|-------------------------------|
                                                                      
E|---10b-10b-10b-10b-10b-10b-10b-10b-etc----------------------|
B|------------------------------------------------------------|
G|------------------------------------------------------------|
D|------------------------------------------------------------|
A|------------------------------------------------------------|
E|------------------------------------------------------------|
                                               Sit up straight

       D          C     D          C               
  Sit up straight   Sit up straight  
      D           C     D          C 
  Sit up straight   Sit up straight
 
                   D  C                  D   C
  On the back of a bus  On the back of a bus
                   D  C                  D   C
  On the back of a bus  On the back of a bus
                   D  C 
  On the back of a bus  

Shes So Loose

Fmaj9add#11		133000
Fmaj7add#11		133200
Esus4			022200
E			022100
A			x02220
Am			x02210
Cmaj7			x32000
B7add11		x21200
Em			022000
C			x32010
D11			x54030
F			133211
G			3x0033
G#			466544
Am7			575555

INTRO:   Fmaj9add#11

VERSE 1:

         Fmaj9add#11   Esus4     E
         Take my love away
         Fmaj7add#11              A 
         Its never gonna work for you                 
 
CHORUS:
               Am
        Well I met her at night
                      Fmaj7add#11
        You know that seeing is believing
                      Cmaj7
        And though the feeling was right
                 B7add11
        Well she couldn't stop screaming
                Em
        And she swallowed him down 
               C           
        To the heart of the world
         Am   G  Fmaj7add#11 Cmaj7
         Shes    So          Loose
         D11
         Shes so loose

      You go back to Fmaj7add#11 now  and play the intro again 

VERSE 2:
          Fmaj9add#11          Esus4      E
          Take  these  wings  away    
          Fmaj7add#11                A
          There never gonna work for me

CHORUS:
               Am
        Well I met her at night
                      Fmaj7add#11
        You know that seeing is believing
                      Cmaj7
        And though the feeling was right
                 B7add11
        Well she couldn't stop screaming
                    Em
        Its getting hotter again
               C
        In the heart of the world

   Am        F         G         F          G         G#       Am7
E|-5--5--5-|-1--1--1-|-3--3--3-|-1--1--1-|-3--3--3-|-4--4--4-|-5--|
B|-5--5--5-|-1--1--1-|-3--3--3-|-1--1--1-|-3--3--3-|-4--4--4-|-5--|
G|-5--5--5-|-2--2--2-|-4--4--4-|-2--2--2-|-4--4--4-|-5--5--5-|-5--|
D|-7--7--7-|-3--3--3-|-5--5--5-|-3--3--3-|-5--5--5-|-6--6--6-|-5--|
A|-7--7--7-|-3--3--3-|-5--5--5-|-3--3--3-|-5--5--5-|-6--6--6-|-7--|
E|-5--5--5-|-1--1--1-|-3--3--3-|-1--1--1-|-3--3--3-|-4--4--4-|-5--|

Solo
E|----------|----------|-----------|----------|-----------------------|
B|----------|----------|-----------|----------|-----------------------| 
G|------5~~-|------5~~-|-------5~~-|------5~~-|-5\\\1///5\\\1///5\4~~-| 
D|-5-5-7----|-5-5-7----|--5-5-7----|-5-5-7----|-----------------------|
A|----------|----------|-----------|----------|-----------------------|
E|----------|----------|-----------|----------|-----------------------|

E|-----------|-----------|---------------|---------------|-----------|
B|-----------|-----------|---------------|---------------|-----------| 
G|-4-5-4-2-4-|-4--4--4---|-4-5--4-5-4--2-|--4-4--5-4-5-4-|--2- -5-5--| 
D|-----------|--2--2---2-|---------------|---------------|-----------| 
A|-----------|--0--0---0-|---------------|---------------|-----------|
E|-----------|-----------|---------------|---------------|-----------|
  
CHORUS:
               Am
        Well I met her at night
                      Fmaj7add#11
        You know that seeing is believing
                      Cmaj7
        And though the feeling was right
                 B7add11
        Well she couldn't stop screaming
                Em
        And she swallowed him down 
               C           
        To the heart of the world
         Am   G  Fmaj7add#11 Cmaj7
         Shes    So          Loose

We're Not Supposed To            

Use a Capo on the 2nd fret for this 

CHORDS USED:
G       320033
Bb13    x11133
E       022100
C       x32010
D       xx0232
Am      x02210
Cm      x35543
F	  133211

INTRO:
    'ERE MUM GOT ANY MANDIES?

Then just play G for a bit :)

VERSE 1:

G                          Bb13          
We're not supposed to make friends with you,
            E                      C 
because you look so lonely so we're going to
     G                      
make friends with you we're not supposed to
     Bb13                 E
It's up to you, because we know you're stranger
     C                       D
'cos you're no stranger than me or you
     Am
Than me or you 
            D                    G
Ba Ba Ba Ba Baaaaa   Ba Ba Ba Ba Baaaa

BRIDGE:
    C                 G      
But everybody's going away
    F                    Cm
And eveybody wants us to stay
     G
With you
    C                     G  
And everybody's coming to say
    F                    Cm   
And eveybody wants us to stay
     G
With you

VERSE 2:
               G         
We're not supposed to
     Bb13                   E 
make love to you, because we know you're younger
     C                      D
'cos you're no younger than me or you
       Am              D             Am             D
Than me or you   Ba Ba Baaaaa  Ba Ba Baaaaaa  Ba Ba Baaaaaa
        G
Than me or you

Time

Riff A
E|------------------------------------|
B|----------------------0-------------|    
G|----------------------4-------------|       
D|----------2-----------2-------------|
A|---2--4------x-x-x------x-x-x-x-----|    
E|------------------------------------|

Riff B
E|----------------------------------------|------------------------|
B|--------------------0-------------------|------------------------|
G|--------------------4--2--5--2--4--2----|------------------------|       
D|---------2----------2--2--2--2--2--2----|---------6--------------|
A|--2--4----x-x-x-------------------------|---4--4--6--4-----------|
E|----------------------------------------|---2--2--4--2---2-3-4---|
   
INTRO:
Riff A   x8

VERSE 1:
Riff A    x3
The time is on the way
Riff B    x1
My love
Riff A   x3
I know I'm going away
Riff A   x1
My love

CHORUS:
Bm
Yeah, I know what I
F7
I see
Riff B (but don't play the last bar)   
Have it all you
Bm
Yeah, I know what I
F7 
I see
Riff A x2
Have it all

VERSE 2:
Riff A   x3
A light feeling inside
Riff B  x1
My love
Riff A   x3
I know I'm going away
Riff B   x1
My love

CHORUS   again

SOLO

CHORUS  again

ENDING:
Bm 
Yeah, I know what I
F7
Riff A  x2
Have it all you

The last chord is  x0222x

Sofa (Of My Lethergy)

INTRO:
Just play D for a bit

VERSE1:
D
I wandered for a while I didn't have that 
Em7                                    
Far to go waiting for a letter only to discover that
     D
I'm not the same
D
I know it to be true you're only gonna to
Em7
Go again standing at the harbour there was only water 
         D
To be talking to

C# F#m G G7 D

VERSE 2:
D
I sold it to the trees I didn't know which 
Em7
Way to go underneath the harbour waiting for the sun
             D
To settle down
D
I owe it to your dreams they always seem 
Em7
To bring me round waiting at the harbour there is only water 
         D
To be talking to

C# F#m G G7

BRIDGE:
A            G                 D
Hold on now, all I wanna do is see you,
    Em                   A                            D6       A7
but everybody is in just sitting round staring at the ceiling                                                                   
D6                          C                          B7
What you gonna find in your mixed up minds when you're dreaming?
Em             A                   D
Could be we're not like you at all

C# F#m G G7

(Instrumental verse)
 D  Em7  D   Em7  D

C# F#m G G7

BRIDGE:
A            G                 D
Hold on now, all I wanna do is see you,
    Em                   A                            D6       A7
but everybody is in just sitting round staring at the ceiling                                                                   
D6                          C                          B7
What you gonna find in your mixed up minds when you're dreaming?
Em             A               D
Maybe be we're not like you at all

C# F#m G G7 D

Time To Go

INTRO:
[Fmaj7/C Fmaj7/G Fmaj7/C]...repeated


VERSE 1:
[Fmaj7/C]Thanks to [Fmaj7/G]everyone for 
[Fmaj7/C]Everything you've [Fmaj7/G]done but now it's 
[Fmaj7/C]Time to [Fmaj7/G]go

VERSE 2:
[Fmaj7/C]You know it's [Fmaj7/G]hard, we've had some 
[Fmaj7/C]Fun but now we've [Fmaj7/G]almost done it's 
[Fmaj7/C]Time to [Fmaj7/G]go

[Fmaj7/C-slide-F#7/C#-slide-G6/D G6/A]

[G6/D]Who could [F#7/C#]ask for 
[Fmaj7/C]more?[Fmaj7/G] [Fmaj7/C][Fmaj7/G]

[Play verse chords without vocals] 

VERSE 3:
[Fmaj7/C]Thanks to [Fmaj7/G]everyone for 
[Fmaj7/C]Everything you've [Fmaj7/G]done but now it's 
[Fmaj7/C]Time to [Fmaj7/G]go

VERSE 4:

[Fmaj7/C]You know it's [Fmaj7/G]hard, we've had some 
[Fmaj7/C]Fun but now we've [Fmaj7/G]almost done it's 
[Fmaj7/C]Time to [Fmaj7/G]go

[Fmaj7/CF#7/C#G6/D G6/A]

[G6/D]Who could [F#7/C#]ask for 
[Fmaj7/C]more?[Fmaj7/G] [Fmaj7/C][Fmaj7/G]...repeated

Chords:
Fmaj7/C -  x33210 
Fmaj7/G -  3x3210
F#7/C#  -  x44320
G6/D    -  x55430
G6/A    -  5x5430