Lenny by Supergrass

INTRO:

E|-------------------------------------------------
B|-------------------------------------------------
G|-------------------------------------------------
D|-------------------------------------------------
A|-------------------------------------------------
E|---0--0--0--0--0--0--0--0--0--0--0--0----etc

VERSE:

Riff A                                              Riff B
E|-----------------------------------------|----------------------------------------|
B|-----------------------------------------|----------------------------------------|
G|-----------------------------------------|----------------------------------------|
D|-----------------------------------------|-------------------------4----4-5-6-----|
A|--------------------------5-----5-6-7----|------------------4-5-6----6---------7--|
E|---0-0-0-0---5-6-7-----7-----------------|------0-0-0-0---------------------------|

This is played with Vocals

Been around and around but I got nowhere to go now
But the funny thing is that when I'm gone i'll kill you hoo

CHORUS:
B                                     E
When I tell you    I don't want you hoo hoo

Repeat VERSE and CHORUS again :)

SOLO:
Fsus4   F       Fsus4  F 
Ooooo  Oooooooo Ooooo  Oooooooooooooooooo

E|-------------------|--------------------|---------------------|-----------------------|
B|-------------------|--------------------|---------------------|-----------------------|
G|-------------------|--------------------|---------------------|-----------------------|
D|--9-9-7------------|---9-9-7------------|---9-9-7-------------|------------9-9--------|
A|---------9-8-7-----|----------9-8-7-----|-----------9-8-7-----|-----------------------|
E|------------------7|-----------------7--|-------------------7-|---10-10--7-------7----|

Fsus4   F              Fsus4   F
Ooooo  Oooooooo  Ooooo  Oooooooooooooooooo

E|---------------------|----------------------|------------------------|----------------------|
B|---------------------|----------------------|------------------------|----------------------|
G|---------------------|----------------------|------------------------|----------------------|
D|--9-9-7--------------|---9-9-7--------------|---9-9-7----------------|---9-9-7--------------|
A|----------9-8-7------|-----------9-8-7------|-----------9-8-7--------|-----------9-8-7---- -|
E|------------------7--|-------------------7--|-------------------7----|------------------7---|

( theres some progressive bending in last three bars but I can't figure it out )

Fsus4   F            Fsus4   F
Ooooo  Ooooooo  Ooooo  Ooooooooooooooooooo

E|-----------------------------|------------------------|             
B|-----------------------------|------------------------|      
G|-----------------------------|--7-7-------------------|         Play       
D|-------9-9-7-------7-8-9-----|-------9-7--------------|      4 times :)
B|----------------9------------|-------------9-8-7------|           
E|-----------------------------|------------------------|     

E|----------------------------------|
B|----------------------------------|   
G|----------------------------------|         Play
D|----------------------------------|      3 times :)
A|-----------------7-7-7-7----------|    
E|---0-0-0-0-0-------------0--------|    

VERSE again

ENDING:
B                A                          
When I tell you    When I tell you oooh  
B                    A   G#    G    F#  F   E
YEAH When I tell you   I don't want you hoo hoo


NOTE:
  Fsus4  =  13-15-15-15-13-13
  F      =  13-15-15-14-13-13