Supergrass - Moving

Chords used:
  D13      Emin9    C9   Am  Bsus2 B7     Bm   A   Em
e--7----------7-----3----0----2----2--|--7----5----7-
b--7----------7-----3----1----2----4--|--7----5----8-
g--5----------9-----0----2----4----2--|--7----6----9-
d--5----------9-----0----2----4----4--|--9----7----9-
a--5----------7-----3----0----2----2--|--9----7----7-
e--x----------7---3-0----0----2----2--|--7----5----7-

D13
Moving, just keep moving,
                    Emin9
Till I don't know why to stay,
C9                                  Am
I've been moving so long,
                       Bsus2     B7
The days all feel the same,

D13
Moving, just keep moving,
                   Emin9
Well I don't know why to stay,
C9                     Am
No ties to bind me,
                 Bsus2    B7
No reasons to remain,

Bm                A           Em
Got a low, low feeling around me,
Bm                     A         Em
And a stone cold feeling inside,
        Bm           A                       Em   
And I just can't stop messing my mind up,
                              Bm  A   Em
And wasting my time,

Bm                A             Em
There's a low, low feeling around me,
Bm                  A          Em
And a stone cold feeling inside,
Bm                  A          Em
I've got to find somebody to help me,
Bsus2          B7
I keep you in mind,

In the chorus there's a there's a second guitar that plays this little
riff:  
     Bm     A      Em
E -|-7------5--------7-7------7-7-
B -|-7------5--------8-7------8-7-
G -|-7------6--------7-7------7-7-
D -|-9------7----7h9-9-7--7h9-9-7-
A -|------------------------------
E -|------------------------------

D13
So I'll keep moving, just keep moving,
                          Emin9
Well I don't know who I am,
C9                       Am
No need to follow,
                            Bsus2   B7
There's no way back again,

Moving, keep on moving,
Where I feel I'm home again,
And when it's over,
I'll see you again,

Got a low, low feeling around me,
And a stone cold feeling inside,
And I just can't stop messing my mind up,
And wasting my time,

There's a low, low feeling around me,
And a stone cold feeling inside,
I've got to find somebody to help me,
I keep you in mind,

[Solo]


				       ~~~~~~~~
------------------------------------------------------------------
------------------------------------------------------------------
--7/9-7-----7/9-7----9\7-7----------------------------------------
--------7-9----------------9br10-9-9/16--------16-17-19/16--------
-----------------------------------------12-----------------------
-------------------------------------------14---------------------
				    ~~~        ~~~~
------------------------------------------------------------------
--------------------------------15/17-15--------------------------
-----------------------------------------14/16-14--14-16-16b17b16-
--16b17b16---14--------------14-----------------------------------
----------------17-14---------------------------------------------
----------------------17-15---------------------------------------

------------------------------------------------------------------
---14-12-11----9/8----9-11----------------------------------------
------------------------------------------------------------------
------------------------------------------------------------------
------------------------------------------------------------------
------------------------------------------------------------------

-Repeat the above and twiddle it a bit :o)

[Chorus]

--7-7-x--5-5-x----------------------------------------------------
--7-7-x--5-5-x------8-7--7-----8-7--------------------------------
--7-7-x--6-6-x--7---7-7--7-7---7-7--------------------------------
--9-9-x--7-7-x--7h9-9-9--9-7h9-9-9--------------------------------
--9-9-x--7-7-x--7----------7--------------------------------------
--7-7-x--5-5-x----------------------------------------------------

-repeat