Supergrass-Pumping On Yor Stereo

VERSE/CHORUS RIFF
-----------------------------------
-7--8-7-8--9--9-10-10--9-9-10------
-7--7-7-7--9--9-9--9---9-9-9-------
-7--9-7-9--9--9-11-11--9-9-11------
-----------------------------------
-----------------------------------

PHRASE 1
      S   S
E |-3-/-5-\-3------------------------
B |-3-/-5-\-3------------------------

INTRO (Induce feedback):
A |--5-----------------7---------------------
       Can you hear us pumping on your stereo?

(x4)

RIFF
  Can you hear us pumping on your stereo?

(x4)

VERSE 1:

RIFF
Life is a cigarette
RIFF
You smoke to the end
RIFF
But if you rock it a little bit
RIFF
Then you burn all your friends

    F                                            A 
The wider your eyes the bigger the lies yes it's true

CHORUS:

RIFF
Can you hear us pumping on your stereo?

(x2)

VERSE 2:

RIFF
Take a look through your window now
RIFF
You're all alone on the road
RIFF
Well you burn all your bridges down
RIFF
Now you're losing control
    F                                            A  
The wider your eyes the bigger the lies yes it's true
       C                                                 G     *PHRASE 1
If you make a mistake well you couldn't relate to you're blue (yes it's true)

(REPEAT CHORUS x2)

VERSE 3:

RIFF
Well now that I've met you
RIFF
I love you as a friend
RIFF
Yeah but your love is mogadon
RIFF
Love is the end
         F                                            A  
Well the wider your eyes the bigger the lies yes it's true
       C                                                 G     *PHRASE 1
If you make a mistake well you couldn't relate to you're blue (yes it's true)

(REPEAT CHORUS x2, GUITAR OUT)

OUTRO:

(REPEAT CHORUS x4)

GUITAR LINE
  E              D          E

    BU      BU                    BU         BU
--------7------------------------------12---------
--7-(9)---7-(9)----------------12-(14)----12-(14)-
--------------------7-7---7-9---------------------
------------------9-----9-------------------------
--------------------------------------------------
--------------------------------------------------

End on F to A chords

The end. Can I go home now?