Supergrass-Richard III

Intro:  A5   Eb5 x4

                             C5  A5    Eb
RIFF1 e----------------RIFF2e---------------
      B----------------     B---------------
      G-555\777\888\10-     G-9-\------8888-
      D----------------     D-10\7777--8888-
      A-333\555\666\8--     A-10\7777--6666-
      E----------------     E-8-\5555------- X4

verse1:(RIFF2 played throughout verses)
       Got up today,what a day, thanks a million
       Spending too much time wondering why
       I got an opinion, yeah

       C                            Ab
chorus:I know you wanna try and get away
       G
       But it's the hardest thing

       You'll ever know RIFF1

verse2:Waiting in line, terrible time,overfamiliar
       Well take them away they've nothing to say
       You're over the hill, yeah

repeat chorus

theremin solo:
       e-----------------------------------
       B-13-------------------13-----------
       G---12--14---------------12--14-----
       D----------14--12---------------14--
       A------------------15---------------
       E-----------------------------------

       e------------------------
       B-13---------------------
       G---12--14---------------
       D----------14--12--------
       A------------------15----
       E------------------------

       C5            A5      C5            A5
       Trying to get at you  Trying to get at you

      
e-----------------------------------------------
B-13------------------13----------13------------
G---12--14--------------12--14------12--14--17--
D----------14--12-------------14----------------
A-----------------15----------------------------
E-----------------------------------------------

       C5            A5      C5            A5
       Trying to get at you  Trying to get at you
       Trying to get at you  Trying to get at you
 
guitar solo(w/wah-wah)
       e---------------------------------------------
       B---------------------------------------------
       G------888--7^--5----5---------8888-----------
       D-7777-888--------7----7--7777-8888-----------
       A-7777-666----------------7777-6666-----------
       E-5555--------------------5555----------------
      
e-----------------------------------------------
B-----------------------5--5--5--5--5-----------
G-------5--------5---7--7^-7^-7^-7^-7^--8-8-8-8-
D-\777----7-\777---7----------------------------
A-----------------------------------------------
E-----------------------------------------------

e-----------------------------------------------
B-5--5--5--5--5---------------------------------
G-7^-7^-7^-7^-7^----8-8-8-8--7^--5----5---------
D-----------------------------------7-----------
A-----------------------------------------------
E-----------------------------------------------

repeat chorus X2

RIFF3:e-----------------------------------
      B-----------------------------------
      G-5-5-5\7-7-7\8-8-8\10-10-10\11-----
      D-----------------------------------
      A-3-3-3\5-5-5\6-6-6\8--8--8-\9------
      E-----------------------------------