Shes So Loose by SUPERGRASS

Fmaj9add#11		133000
Fmaj7add#11		133200
Esus4			022200
E			022100
A			x02220
Am			x02210
Cmaj7			x32000
B7add11		x21200
Em			022000
C			x32010
D11			x54030
F			133211
G			3x0033
G#			466544
Am7			575555

INTRO:   Fmaj9add#11

VERSE 1:

         Fmaj9add#11   Esus4     E
         Take my love away
         Fmaj7add#11              A 
         Its never gonna work for you                 
 
CHORUS:
               Am
        Well I met her at night
                      Fmaj7add#11
        You know that seeing is believing
                      Cmaj7
        And though the feeling was right
                 B7add11
        Well she couldn't stop screaming
                Em
        And she swallowed him down 
               C           
        To the heart of the world
         Am   G  Fmaj7add#11 Cmaj7
         Shes    So          Loose
         D11
         Shes so loose

      You go back to Fmaj7add#11 now  and play the intro again 

VERSE 2:
          Fmaj9add#11          Esus4      E
          Take  these  wings  away    
          Fmaj7add#11                A
          There never gonna work for me

CHORUS:
               Am
        Well I met her at night
                      Fmaj7add#11
        You know that seeing is believing
                      Cmaj7
        And though the feeling was right
                 B7add11
        Well she couldn't stop screaming
                    Em
        Its getting hotter again
               C
        In the heart of the world

   Am        F         G         F          G         G#       Am7
E|-5--5--5-|-1--1--1-|-3--3--3-|-1--1--1-|-3--3--3-|-4--4--4-|-5--|
B|-5--5--5-|-1--1--1-|-3--3--3-|-1--1--1-|-3--3--3-|-4--4--4-|-5--|
G|-5--5--5-|-2--2--2-|-4--4--4-|-2--2--2-|-4--4--4-|-5--5--5-|-5--|
D|-7--7--7-|-3--3--3-|-5--5--5-|-3--3--3-|-5--5--5-|-6--6--6-|-5--|
A|-7--7--7-|-3--3--3-|-5--5--5-|-3--3--3-|-5--5--5-|-6--6--6-|-7--|
E|-5--5--5-|-1--1--1-|-3--3--3-|-1--1--1-|-3--3--3-|-4--4--4-|-5--|

Solo
E|----------|----------|-----------|----------|-----------------------|
B|----------|----------|-----------|----------|-----------------------| 
G|------5~~-|------5~~-|-------5~~-|------5~~-|-5\\\1///5\\\1///5\4~~-| 
D|-5-5-7----|-5-5-7----|--5-5-7----|-5-5-7----|-----------------------|
A|----------|----------|-----------|----------|-----------------------|
E|----------|----------|-----------|----------|-----------------------|

E|-----------|-----------|---------------|---------------|-----------|
B|-----------|-----------|---------------|---------------|-----------| 
G|-4-5-4-2-4-|-4--4--4---|-4-5--4-5-4--2-|--4-4--5-4-5-4-|--2- -5-5--| 
D|-----------|--2--2---2-|---------------|---------------|-----------| 
A|-----------|--0--0---0-|---------------|---------------|-----------|
E|-----------|-----------|---------------|---------------|-----------|
  
CHORUS:
               Am
        Well I met her at night
                      Fmaj7add#11
        You know that seeing is believing
                      Cmaj7
        And though the feeling was right
                 B7add11
        Well she couldn't stop screaming
                Em
        And she swallowed him down 
               C           
        To the heart of the world
         Am   G  Fmaj7add#11 Cmaj7
         Shes    So          Loose