Sitting Up Straight

G		3x0033
G/F		1x003x
Em		022000
Eb		x6888x
Em7		022033
Am		x02210
F		133211
D		xx0232
F#7		242322
Bm		x24432
A7sus4	x02030
A7		x02020
C		x32010
Bb		x1333x
G7		3x3003
A		x02220

Piano
D F# Bm D7 G7 A x2

Guitar

Intro
G G/F G G/F x2

Verse
G                                    G/F 
Sitting up straight at the back of a bus
G                     G/F           Em        Eb
Mimicking time as the evening turns to dusk
G                        Em7 
Look at the boy with his face on the floor
G                           Em7               Am    F   G
Have a little smoke just to pass the time of day

D   F#7  Bm D       G           A7sus4 A7
Hes like me he'd do anything to get away 
  D    F#7 Bm  D        G           A7sus4 A7
I know can you be there every day I know I can 
  D     F#7 Bm D        G              Em7            Am    C   D
Believe in you it means everything and every power to me

D C D C D C D C

D                          C 
Sitting up straight on the back of a bus
D                     C             Bm       Bb
Mimicking time as the evening turns to dusk
D                        Bm 
Look at the boy with his face on the floor
D                           Bm               Em     G    D
Have a little smoke just to pass the time of day

D   F#7  Bm D        G           A7sus4 A7
Hes like me he'll do anything to get away 
  D    F#7 Bm  D        G           A7sus4 A7
I know can you be there every day I know I can 
  D     F#7 Bm D        G             G7             A 
Believe in you it means everything in every power to me

Solo
E|---10-10-10-8-10------------------|---10-10-10-8-10---------------|
B|---10-10-10-8-10------------------|---10-10-10-8-10---------------|
G|-----------------------10-9-8-7-7-|---------------------10-9-8-7--|
D|--------------------------------- |-------------------------------|
A|----------------------------------|-------------------------------|
E|----------------------------------|-------------------------------|

E|----------------------------------|-------------------------------|
B|--------------8-8----------8b--6--|---8-8-10b-10b-10b-10b-12b-12b-|
G|7--7--7-7-7--------7--7-----------|7-7----------------------------|
D|----------------------------------|-------------------------------|
A|----------------------------------|-------------------------------|
E|----------------------------------|-------------------------------|
                                                                      
E|---10b-10b-10b-10b-10b-10b-10b-10b-etc----------------------|
B|------------------------------------------------------------|
G|------------------------------------------------------------|
D|------------------------------------------------------------|
A|------------------------------------------------------------|
E|------------------------------------------------------------|
                                               Sit up straight

       D          C     D          C               
  Sit up straight   Sit up straight  
      D           C     D          C 
  Sit up straight   Sit up straight
 
                   D  C                  D   C
  On the back of a bus  On the back of a bus
                   D  C                  D   C
  On the back of a bus  On the back of a bus
                   D  C 
  On the back of a bus