Strange Ones By Supergrass

CHORUS:

[A]There's a place where the [C]strange ones go where
[F]Nobody here could [D]know [Em]
[A]They look down from the [C]clouds and smile at
[F]Everyone down [D]below [Em]

[A]There's a place where the [C]strange ones go
[F]Where nobody here could [D]know [Em]
[A]They look down from the [C]underground at
[F]Eveyone down [D]below [Em]

VERSE:
   Am          F         E         Am           F         E
E|-0--0------|-1--1----|-0--0----|-0--3b-0----|-1--1----|-0-0----|
B|-1----1----|-1----1--|-0----0--|-1-------1--|-1----1--|-0---0--|
G|-2------2--|-2-------|-1-------|-2----------|-2-------|-1------|
D|-2---------|-3-------|-2-------|-2----------|-3-------|-2------|
A|-0---------|-3-------|-2-------|-0----------|-3-------|-2------|
E|-----------|-1-------|-0-------|------------|-1-------|-2------|

Well I would [Am]cry for you [F] [E]
I would [Am]die for you [F] [E]
[Am]Every [F]body [E]needs a [Am]home [F] [E]
Well are you [Am]strange enough [F] [E]
Are you [Am]deranged enough [F] [E]
[Am]Every [F]fucker [E]needs a [Am]home [F] [E]

CHORUS: again

VERSE: again

SOLO:
    C#m7                                            C                    
E||--9-----------------|----9---------------------|----------------8--8--|
B||--9-----------------|-------9--------9---------|----------------8--8--|
G||--9-----------------|--------------------------|----------------------|
D||--9-----------------|-------------------9\---5-|--10------------------|
A||--11----------------|----------11-------11\--7-|--10------------------|
E||--9-----------------|----------9--------9\---5-|--8-------------------|
                                 Bm                    
------------------------------|-----------------------|
--8------8-----8---8----------|-----------7-----------|
--9--10--10----10--9----------|--------------7--------|
------------------------------|--------------------9--|
----------------------10--10--|--9--------------9--9--|
----------------------8---8---|--7--------------7--7--|
  Bb                         Am                F        E          
--6--6--6--6--6--6--6--0--|--5------5-----------------------------|
--6--6--6--6--6--6--6--0--|--5------5-----------------------------|
--7--7--7--7--7--7--7-----|--5------5----8-7p5-7--5--4--5--4------|
--8--8--8--8--8--8--8-----|--7------7-------------------------7p5-|
--8--8--8--8--8--8--8-----|--7------7-----------------------------|
--6--6--6--6--6--6--6-----|--5------5-----------------------------|
  Am             F        E           Am             F         E         
-----------------------------------|------------------------------0--0--|
-----------------------------------|------------------------------8--8--|
-----------------------------------|---------------------5--7--9--------|
--7----------3-3-3--2--0-----------|-----------5--5--5h7----------------|
--------------------------3p-2-----|--0---------------------------------|
--------------------------------3--|------------------------------------|
  Am              F        E           Am               F       E          
---------8-----8-----8-----8--------|--5----------------------------------|
--8b--------8b----8b----8b----8--8--|--5----------------------------------|
------------------------------------|-------------7\5-5/7-5h-4--5--4------|
------------------------------------|---------------------------------7p5h|
------------------------------------|-------------------------------------|
------------------------------------|-------------------------------------|
  Am             F        E          Am             F         E           
----------------------------------|--------------------------------------|
----------------------------------|--------------------------------------|
----------------------------------|-----------0--0------5--7-------------|
--7----------3-3-3--2-------------|-----------------5h7-------0--x-x-x-x-|
-----------------------3--2-------|--------------------------------------|
-------------------------------3--|--5-----------------------------------|
  Am             F         E      Am              F       E        
-------------------------------|----------------------------------|
--5------8-------10------------|--10------10------10------10------|
--7r-----10r-----12b-----------|--12b-----12b-----12b-----12b-----|
-------------------------------|----------------------------------|
-------------------------------|----------------------------------|
-------------------------------|----------------------------------|
  Am              F       E            Am            F        E         
------------------------------------|--0------0------1--1--1--0--0--0--|
--10------10------10------10--------|--1------1------1--1--1--0--0--0--|
--12b-----12b-----12b-----12b-------|--2------2------2--2--2--1--1--1--|
------------------------------------|--2------2------3--3--3--2--2--2--|
------------------------------x--x--|--0------0------3--3--3--2--2--2--|
------------------------------x--x--|----------------1--1--1--0--0--0--|
  Am            F        E          
--0------0------1--1--1--0--0--0--|
--1------1------1--1--1--0--0--0--|
--2------2------2--2--2--1--1--1--|
--2------2------3--3--3--2--2--2--|
--0------0------3--3--3--2--2--2--|
----------------1--1--1--0--0--0--|

PLAY CHORUS:
[A]There's a place where the [C]strange ones go where
[F]Nobody here could [D]know [Em]
[A]They look down from the [C]clouds and smile at
[F]Everyone down [D]below [Em]

[A]There's a place where the [C]strange ones go
[F]Where nobody here could [D]know [Em]
[A]They look down from the [C]underground at
[F]Eveyone down [G]below

ENDING:                                                                
|--5------------x--5--|--------------x--5--|--------------x--5--|
|--5------------x--5--|--------------x--5--|--------------x--5--|
|--6------------x--5--|--------------x--6--|--------------x--5--|
|--7------------x--5--|--------------x--7--|--------------x--5--|
|--7------------x--5--|--------------x--7--|--------------x--5--|
|--5------------x--5--|--------------x--5--|--------------x--5--|
                                                                  
--------------x--5-5-|--5------5------5----|----5------5----5----|
--------------x--5-5-|--5------5------5----|----5------5----5----|
--------------x--6-6-|--6------6------6----|----6------6----6----|
--------------x--7-7-|--7------7------7----|----7------7----7----|
--------------x--7-7-|--7------7------7----|----7------7----7----|
--------------x--5-5-|--5------5------5----|----5------5----5----|
                   
--5----------------||
--5----------------||
--6----------------||
--7----------------||
--7----------------||
--5----------------||