Time by SUPERGRASS

Riff A
E|------------------------------------|
B|----------------------0-------------|    
G|----------------------4-------------|       
D|----------2-----------2-------------|
A|---2--4------x-x-x------x-x-x-x-----|    
E|------------------------------------|

Riff B
E|----------------------------------------|------------------------|
B|--------------------0-------------------|------------------------|
G|--------------------4--2--5--2--4--2----|------------------------|       
D|---------2----------2--2--2--2--2--2----|---------6--------------|
A|--2--4----x-x-x-------------------------|---4--4--6--4-----------|
E|----------------------------------------|---2--2--4--2---2-3-4---|
   
INTRO:
Riff A   x8

VERSE 1:
Riff A    x3
The time is on the way
Riff B    x1
My love
Riff A   x3
I know I'm going away
Riff A   x1
My love

CHORUS:
Bm
Yeah, I know what I
F7
I see
Riff B (but don't play the last bar)   
Have it all you
Bm
Yeah, I know what I
F7 
I see
Riff A x2
Have it all

VERSE 2:
Riff A   x3
A light feeling inside
Riff B  x1
My love
Riff A   x3
I know I'm going away
Riff B   x1
My love

CHORUS   again

SOLO

CHORUS  again

ENDING:
Bm 
Yeah, I know what I
F7
Riff A  x2
Have it all you

The last chord is  x0222x