Supergrass - What Went Wrong In Your Head

By JoFFray “Disco Rock”

VERSE
      What went wrong 	in your head?
      Am            C C/B C   Dsus4   Em
E-----0-------------0--0--0----0----0------------------|
B-----1-------------1--1--1----3----0------------------|
G-----2-------------0--0--0----0----0------------------|
D-----2-------------2--x--2----4----2------------------|
B-----0-------------3--2--3----5----2------------------|
E-----x-------------x--x--x----x----0------------------|

      While we slept 	in our beds,
     Am             C C/B C   Dsus4  Em
E-----0-------------0--0--0----0----0------------------|
B-----1-------------1--1--1----3----0------------------|
G-----2-------------0--0--0----0----0------------------|
D-----2-------------2--x--2----4----2------------------|
B-----0-------------3--2--3----5----2------------------|
E-----x-------------x--x--x----x----0------------------|

     La la la             la la la
     Dm      F7    Am    Bb   Fm7
E-----1------0-----0-----1----1------------------------|
B-----3------1-----1-----1----1------------------------|
G-----2------2-----2-----3----1------------------------|
D-----0------3-----2-----3----1------------------------|
B-----x------x-----0-----1----x------------------------|
E-----x------x-----x-----x----x------------------------|

What went wrong in your head?
We played along with what you said,
La la la la la la la
La la la la la la la
What went wrong in your head?

CHORUS
      God   save the unstable, they stand alone,
      G      D     Em      D9         
E-----3------2-----0-------0--------------------------|
B-----0------3-----0-------1--------------------------|
G-----0------2-----0-------2--------------------------|
D-----0------0-----2-------0--------------------------|
B-----2------x-----2-------0--------------------------|
E-----3------x-----0-------2--------------------------|
      Ain't done no wrong, it's such a beautiful life,
      G          F#m      Bm         
E-----3-----------2-------2--------------------------|
B-----0-----------2-------3--------------------------|
G-----0-----------3-------4--------------------------|
D-----0-----------4-------4--------------------------|
B-----2-----------4-------2--------------------------|
E-----3-----------2-------X--------------------------|

I'll need some salvation, wave you on,
Ain't done no harm, with a wonderful life,

VERSE
What went wrong in your head?
While we slept in our beds,
La la la la la la la
La la la la la la la
What went wrong in your head?

CHORUS
God save the unstable, they stand alone,
Ain't done no wrong, it's such a beautiful life,
I'll need some salvation, wave you on,
Ain't done no harm, with a wonderful life,

CHORUS
God save the unstable, they stand alone,
They ain't done no wrong, it's such a beautiful life,
I'll need some salvation, wave you on,
Ain't done no harm, with a wonderful life.