Terrorvision-Easy

VERSE 1:
G                                 Bm                   E           Em
Living out three separate lives with nothing else to do besides it's easy
G                       Bm                             E           Em
They'd wrote Bradford off the map, then all that old commercial crap, it's easy.

CHORUS:
Hassle bound? Not me,
  A          C          E
|----------------------------------|
|--------------------------0-------|
|-----2--------0-------1-----1---1-|
|---2---2----2---2---2---2-----2---|
|-0--------3-------2---------------|
|----------------------------------|

I'm happy and it's easy and it's free.
  A          C      D7         
|----------------------------------|
|-------------------------3--------|
|-----2-------0-------5-----5---5--|
|---2---2---2---2---4---4-----4----|
|-0-------3-------5----------------|
|----------------------------------|

VERSE 2:
G                  Bm                                  E            Em
They'd nothing really good to say, they're here tomorrow, gone today, it's easy.
G                  Bm                                  E            Em
Setting off and duck the flack, flow like water off the back, it's easy.

CHORUS:
Hassle bound? Not me, I'm happy and it's easy and it's free,   free.
|---------0-------|
|-----1-----1---1-|
|---2---2-----2---|
|-0---------------|
|-----------------|
|-----------------|

SOLO:
         E5
|---------------------------------------------------------------------------------|
|--------------------------------------------------------------------0-5-7-5------|
|----------------------------------7^9-7^9-7^9-7-7-----------------------------9\-|
|------------------------------------------------------------------------------9\-|
|--------------------------------------------------------------5-7-------------7\-|
|-12\--3--5^7^5--7--0-3-0--12\3--------------------12\--3--5/7-----7--------------|

   D5 C#5               E5   A5 G#5             E5   D5 C#5            E5
|---------------------------------------------------------------------------------|
|---------------------------------------------------------------------------------|
|--7---6-------------9\---------------------9\----7---6-----------9\--------------|
|--7---6-------------9\----7---6------------9\----7---6-----------9\--------------|
|--5---4-------------7\----7---6------------7\----5---4-----------7\--------------|
|------------0---0---------5---4----0---0-----------------0---0--------0----2---3-|
*Note* Hold the last note of the solo into the first part of the verse.
in other words, hold the note G instead of strumming the G chord in the first
line of verse 3.

VERSE 3:
G                  Bm                                  E            Em
Traveling round is really nice, pay the sights then see the price, it's easy.
G                  Bm                                  E            Em
Take it in then put it out, that's simply what it's all about, it's easy.
G                  Bm                                  E            Em
Stick together till the end, only the best know to pretend, it's easy.
G                  Bm                                  Em          
If I could live my life again I'd influence a lot more friends, it's easy.

RIFF:
|--------------------------|
|--------------------------|
|---------5--7^9^7--5--7---|
|------5-------------------|
|-5/7----------------------|
|--------------------------|
Chorus x 2
OUTRO:
(Sing "Ba Da Da Da Ba" a lot to the following.)

| G / / / | F / / / | Em / / / | D / / / | x2

Then:
|-------------------------|
|-------------------------|
|-------------------------|
|-------------2^4^2-0-----|