Terrorvision-Perseverance

RIFF A
    [S>>>>>>>]         [S>>>>>>>]
E-|------------------|-----------------|-----------------|--------------------|
B-|------------------|-----------------|-----------------|--------------------|
G-|-2----------------|-----------------|-7--7-7--7-6-----|-7--7-7--7-9--------|
D-|-2----------------|-4---------------|-7--7-7--7-6-----|-7--7-7--7-9--------|
A-|-0----------2---4-|-4---------2---4-|-5--5-5--5-4-----|-5--5-5--5-7--------|
E-|------------------|-2---------------|-----------------|--------------------|

[S>>>>>>>]         [S>>>>>>>]
E-|------------------|-----------------|-----------------|--------------------|
B-|------------------|-----------------|-----------------|--------------------|
G-|-2----------------|-----------------|-7--7-7--7-6-----|-9--9-9--9-6--------|
D-|-2----------------|-4---------------|-7--7-7--7-6-----|-9--9-9--9-6--------|
A-|-0----------2---4-|-4---------2---4-|-5--5-5--5-4-----|-7--7-7--7-4--------|
E-|------------------|-2---------------|-----------------|--------------------|

FILL
      [S>>>>>>>>>>]       [S>>>>>>>>>>>]
E-|------------------|-4/5--------------|
B-|------------------|-7/8--------------|
G-|-5/6--------------|-5/6-------------|
D-|-4/5--------------|-4/5-------------|
A-|-6/7--------------|-6/7-------------|
E-|-4/5--------------|-4/5-------------|

RHYTHM
E-|--------5---5-----|--------5---5----|--------5---5----|---------5---5------|
B-|--------8---8-----|--------8---8----|--------8---8----|---------8---8------|
G-|--------6---6-----|--------6---6----|--------6---6----|---------6---6------|
D-|--------5---5-----|--------5---5----|--------5---5----|---------5---5------|
A-|-6/7--------------|-6/7-------------|-6/7-------------|-6/7----------------|
E-|-4/5--------------|-4/5-------------|-4/5-------------|-4/5----------------|

E-|------------------|-----------------|--------5---5----|---------5---5------|
B-|--------8---8-----|--------8---8----|--------8---8----|---------8---8------|
G-|-6/7----7---7-----|-6/7----7---7----|--------6---6----|---------6---6------|
D-|-5/6----6---6-----|-5/6----6---6----|--------5---5----|---------5---5------|
A-|-6/7----7---7-----|-6/7----7---7----|-6/7-------------|-6/7----------------|
E-|------------------|-----------------|-4/5-------------|-4/5----------------|

E-|------------------|-----------------|
B-|------------------|-----------------|
G-|------------------|-----------------|
D-|-9-9-9-9-9-9-9-9--|-1010101010101010|
A-|-9-9-9-9-9-9-9-9--|-1010101010101010|
E-|-7-7-7-7-7-7-7-7--|-8-8-8-8-8-8-8-8-|

RHYTHM END 1
                           [S>>>>>>>>>>>>]
E-|--------5---5----|--------------------|
B-|--------8---8----|-8---8--------------|
G-|--------6---6----|-7---7--------------|
D-|--------5---5----|-6---6--------------|
A-|-6/7-------------|-7---7--------------|
E-|-4/5-------------|--------------------|

RHYTHM END 2
E-|--------5---5-----|--------5---5----|-----------------|------------------|
B-|--------8---8-----|--------8---8----|-----------------|------------------|
G-|--------6---6-----|--------6---6----|-----------------|------------------|
D-|--------5---5-----|--------5---5----|-9-9-9-9-9-9-9-9-|-1010101010101010-|
A-|-6/7--------------|-6/7-------------|-9-9-9-9-9-9-9-9-|-1010101010101010-|
E-|-4/5--------------|-4/5-------------|-7-7-7-7-7-7-7-7-|-8-8-8-8-8-8-8-8--|

RIFF B
E-|------------------|-----------------|-----------------|--------------------|
B-|------------------|-----------------|-----------------|--------------------|
G-|------------------|-----------------|-----------------|--------------------|
D-|------------------|-----------------|-----------------|--------------------|
A-|-0----------2-2-4-|-----------2-2-4-|-5--5-5--5-4-----|-5--5-5--5-7--------|
E-|------------------|-2-2-2-2---------|-----------------|--------------------|

E-|------------------|-----------------|-----------------|--------------------|
B-|------------------|-----------------|-----------------|--------------------|
G-|------------------|-----------------|-----------------|--------------------|
D-|------------------|-----------------|-----------------|--------------------|
A-|-0----------2-2-4-|-----------2-2-4-|-5--5-5--5-4-----|-7--7-7--7-12~~~~~~~|
E-|------------------|-2-2-2-2---------|-----------------|--------------------|

BRIDGE
[Pm...............................................................................]
E-|-------------------------|-----------------|-----------------|-----------------|
B-|-------------------------|-----------------|-----------------|-----------------|
G-|-14-14-14-14-13-13-13-13-|-111111119-9-9-9-|-7-7-7-7-6-6-6-6-|-4-4-4-4-9-9-9-9-|
D-|-14-14-14-14-13-13-13-13-|-111111119-9-9-9-|-7-7-7-7-6-6-6-6-|-4-4-4-4-9-9-9-9-|
A-|-12-12-12-12-11-11-11-11-|-9-9-9-9-7-7-7-7-|-5-5-5-5-4-4-4-4-|-2-2-2-2-7-7-7-7-|
E-|-------------------------|-----------------|-----------------|-----------------|

[Pm......]      [Pm..]      [Pm..]   [Pm..]    [Pm..]  [Pm..]    [Pm..]  [Pm..]
E-|-------------------------|-----------------|-----------------|-----------------|
B-|-------------------------|-----------------|-----------------|-----------------|
G-|-14-14----14-13-13----13-|-1111--119-9---9-|-7-7---7-6-6---6-|-4-4---4-9-9---9-|
D-|-14-14----14-13-13----13-|-1111--119-9---9-|-7-7---7-6-6---6-|-4-4---4-9-9---9-|
A-|-12-12----12-11-11----11-|-9-9---9-7-7---7-|-5-5---5-4-4---4-|-2-2---2-7-7---7-|
E-|-------------------------|-----------------|-----------------|-----------------|

END

[S>>>>>>>>>>>>>>>>>>>>>>>>>>>>>>>>>>>>>>>>>>>>>>>>>>>>>>>>>>>>>>>>>>>>>>>>>>]
E-|----------------------------------------------------------------------------|
B-|----------------------------------------------------------------------------|
G-|-2--------------------------------------------------------------------------|
D-|-2--------------------------------------------------------------------------|
A-|-0--------------------------------------------------------------------------|
E-|----------------------------------------------------------------------------|