Van Morrison - Van Morrison

Part A:
    Am7    Bm7     Am7    Bm7
|---5------7-------5-----7-----|
|:--5------7-------5-----7----:|
|---5------7-------5-----7-----|
|---5------7-------5-----7-----|
|:--x------x-------x-----x----:|
|---5---0--7---0---5--6--7--0--|

Part B: 
    Dm7      Am7   Dm7      Am7
|---5--5-----5-----5--5-----5----|
|---6--6-----5-----6--6-----5----|
|---5--5-----5-----5--5-----5----|
|---7--7-----5-----7--7-----5----|
|---5--5-----x-----5--5-----x----|
|------------5--------------5----|

    Dm7      Am7    Dm7      E7
|---5--5-----5------~-5-5-5----~--------|
|---6--6-----5------~-6-6-6----~-9-9-9--|
|---5--5-----5------~-5-5-5----~-7-7-7--|
|---7--7-----5------~-7-7-7----~-6-6-6--|
|---5--5-----x------~-5-5-5----~-7-7-7--|
|------------5------~----------~-0-0-0--|

Intro - part A

Verse 1 - part A
well it's a marvelous night for a moondance with the 
stars up above in your eyes
a fantabulous night to make romance 'neath the 
color of october skies

all the leaves on the trees are falling to the 
sounds of the breezes that blow
and i'm trying to place to the calling of the 
heartstrings that play soft and low

Bridge - part B
and every time I touch you you just tremble inside
and I know how much you want me that I cant hide

Chorus - part A
can I just have one more moondance with you my love
can I just make some more romance with you my love

Verse 2
well I want to make love to you tonight
I can't wait til the morning has come
and I know that the time will be just right
and straight into my arms you will come

when you come my heart will be waiting 
to be sure that you're never alone
there and then all my dreams will come true dear
there and then I will make you my own

Bridge 2
you know the night's magic seems to whisper and hush
and all the soft moonlight seems to shine on your blush

Chorus

Solos

Verse 1

Bridge

Chorus

Verse - Part A
One more moondance with you
In the moonlight 
on a magic night
la la la la la la 
in the moonlight…
on a magic night

Ending
    Am7    G7       F7       Em         Dm
Can I just have one more moondance with you…
   Am7
My love