Weezer-Buddy Holly  (Eb tuning)

F#5		244xxx	Dm		x5776x	E/G#		47xxxx             
D/A		5577xx	E/B		7799xx	E5		077xxx
B5		x24xxx	A5		577xxx	D5		x577xx
C#m		x4665x	A6		x04xxx

Verse
F#5                                    E/G#
What's with these homies dissin' my girl,
A5
What did they gotta front?
F#5                              E/G#
What did we ever do to these guys,
A5
That made them so violent?

Bridge
D5                  C#m      F#5
Oooh, oooh, but you know I'm yours.
D5                C#m       F#5
Oooh, oooh, and I know your mine.
D5          Dm
Oooh, oooh, and that's for all time.

Chorus
A5                      D/A             E/B
Oooh, eee, oooh, I look just like Buddy Holly,
A5                  D/A        E/B
Oh, oh, and you're Mary Tyler-Moore,
F#5                    D/A  E/B     A5
I don't care what they say about us anyway,
  D/A   E/B        A5   E5 A5
I don't care about that.

   F#5                                      E/G#    A5
|-----------2-4-----2----|-----------------------|-----------2-4-----2----|
|--2--3--2---------------|--2--0-----2------2----|--2--3--2---------------|
|------------------------|--------2--------------|------------------------|
|------------------------|-----------------------|------------------------|
|------------------------|-----------------------|------------------------|
|------------------------|-----------------------|------------------------|
                       
---------------------|
--2---0--------------|
--------2------------|
---------------------|
---------------------|
---------------------|

Verse
Don't you ever fear, I'm always there.
I know that you need help
Your tongue is twisted, your eyes are scared.
You need a guardian. 

Bridge
Oooh, oooh, and you know that I'm  yours.
Oooh, oooh, and I know your mine.
Oooh, oooh, and that's for all time.

Chorua
Oooh, eee, oooh, I look just like Buddy Holly,
Oh, oh, and you're Mary Tyler-Moore,
I don't care what they say about us anyway,
I don't care about that.
I don't care about that.

           E5 F#5E5 F#5         F#5A6 B5 C#5B5 N.C.   
--------------------------|--------------------------|
--------------------------|--------------------------|
--2--2--2-----------------|--------------------------| (repeat this until,
--2--2--2-----4-----4-----|--------4--4--6--4--------|  "feelin blue and")
--0--0--0-----4-----4-----|-----4--0--2--4--2--0-----|
-----------0--2--0--2--x--|--0--2-----------------2--|

Bang, bang, knock on the door,
Another big bang, get down on the floor.
Oh no, what do we do,
Don't look now but I lost my shoe.
I can't run and I can't kick,
What's the matter babe are you feeling sick.
What's the matter, what's the matter, what's the matter you.
What's the matter babe are you feelin' blue and

   D5                        C#m       F#5           D5                               
|------------------------|-----------------------|-14--14--16--16--17--17/-19--19--|
|------------------------|-----------------------|---------------------------------|
|-11b-----11~---9--------|-----------------------|-11------13--13--14--14/-16--16--|
|--------------------12--|--11/---12--7~---------|---------------------------------|
|------------------------|-----------------------|---------------------------------|
|------------------------|-----------------------|---------------------------------|
   Oh      oh    oh   oh     oh    oh  oh

  C#m       F#5                           D5                                 
--19--19--x-17-17----------------------|------------------------------------|
---------------------------14-14-------|------------------------------------|
--16--16--x-14-14----------14-14-------|--16b---16--14~---------14-14-------|
---------------------14h16-------16-14-|------------------14-16-14-14-16-14-|
---------------------------------------|------------------------------------|
---------------------------------------|------------------------------------|
                                                                 And that's
  Dm                                   D5/A     N.C.                             
------------------------------------|-----------|--17------17--19--19b-19p-17------|
--14b---14--------------------------|--14h15-tr-|------18----------------------18--|
------------14~---------------14-16-|-----------|----------------------------------|
------------------------14h16-------|-----------|----------------------------------|
------------------14-16-------------|-----------|----------------------------------|
------------------------------------|-----------|----------------------------------|
     for all time, that's           for all time.
                   
--------------------|
--17~---------------|
--------------------|
--------------------|
--------------------|
--------------------|

Chorus
A5                      D/A             E/B
Oooh, eee, oooh, I look just like Buddy Holly,
A5                  D/A        E/B
Oh, oh, and you're Mary Tyler-Moore,
F#5                    D/A  E/B     A5
I don't care what they say about us anyway,
  D/A   E/B        A5   E5 A5
I don't care about that.
  D/A   E/B        A5   E5 A5
I don't care about that.
  D/A   E/B        A5   E5 A5
I don't care about that.
 D5/A   E5/B       A5   E5 F#5 E5 F#5 
I don't care about that.